  0
SECTION
  2
HEADER
  9
$ACADVER
  1
AC1015
  9
$ACADMAINTVER
 70
     6
  9
$DWGCODEPAGE
  3
ANSI_1254
  9
$INSBASE
 10
0.0
 20
0.0
 30
0.0
  9
$EXTMIN
 10
0.0
 20
0.0
 30
0.0
  9
$EXTMAX
 10
279.4
 20
215.9
 30
0.0
  9
$LIMMIN
 10
0.0
 20
0.0
  9
$LIMMAX
 10
279.4
 20
215.9
  9
$ORTHOMODE
 70
     0
  9
$REGENMODE
 70
     1
  9
$FILLMODE
 70
     1
  9
$QTEXTMODE
 70
     0
  9
$MIRRTEXT
 70
     1
  9
$LTSCALE
 40
1.0
  9
$ATTMODE
 70
     1
  9
$TEXTSIZE
 40
3.5
  9
$TRACEWID
 40
1.0
  9
$TEXTSTYLE
  7
Standard
  9
$CLAYER
  8
0
  9
$CELTYPE
  6
ByLayer
  9
$CECOLOR
 62
   256
  9
$CELTSCALE
 40
1.0
  9
$DISPSILH
 70
     0
  9
$DIMSCALE
 40
1.0
  9
$DIMASZ
 40
3.5
  9
$DIMEXO
 40
1.0
  9
$DIMDLI
 40
3.75
  9
$DIMRND
 40
0.0
  9
$DIMDLE
 40
0.0
  9
$DIMEXE
 40
1.0
  9
$DIMTP
 40
0.0
  9
$DIMTM
 40
0.0
  9
$DIMTXT
 40
3.5
  9
$DIMCEN
 40
2.5
  9
$DIMTSZ
 40
0.0
  9
$DIMTOL
 70
     0
  9
$DIMLIM
 70
     0
  9
$DIMTIH
 70
     1
  9
$DIMTOH
 70
     1
  9
$DIMSE1
 70
     0
  9
$DIMSE2
 70
     0
  9
$DIMTAD
 70
     1
  9
$DIMZIN
 70
     0
  9
$DIMBLK
  1

  9
$DIMASO
 70
     1
  9
$DIMSHO
 70
     1
  9
$DIMPOST
  1

  9
$DIMAPOST
  1

  9
$DIMALT
 70
     0
  9
$DIMALTD
 70
     3
  9
$DIMALTF
 40
0.0393700787
  9
$DIMLFAC
 40
1.0
  9
$DIMTOFL
 70
     1
  9
$DIMTVP
 40
0.0
  9
$DIMTIX
 70
     0
  9
$DIMSOXD
 70
     0
  9
$DIMSAH
 70
     0
  9
$DIMBLK1
  1

  9
$DIMBLK2
  1

  9
$DIMSTYLE
  2
ISO-25
  9
$DIMCLRD
 70
     0
  9
$DIMCLRE
 70
     0
  9
$DIMCLRT
 70
     0
  9
$DIMTFAC
 40
1.0
  9
$DIMGAP
 40
1.524
  9
$DIMJUST
 70
     0
  9
$DIMSD1
 70
     0
  9
$DIMSD2
 70
     0
  9
$DIMTOLJ
 70
     0
  9
$DIMTZIN
 70
     0
  9
$DIMALTZ
 70
     0
  9
$DIMALTTZ
 70
     0
  9
$DIMUPT
 70
     0
  9
$DIMDEC
 70
     2
  9
$DIMTDEC
 70
     2
  9
$DIMALTU
 70
     2
  9
$DIMALTTD
 70
     3
  9
$DIMTXSTY
  7
Standard
  9
$DIMAUNIT
 70
     0
  9
$DIMADEC
 70
     2
  9
$DIMALTRND
 40
0.0
  9
$DIMAZIN
 70
     0
  9
$DIMDSEP
 70
    44
  9
$DIMATFIT
 70
     3
  9
$DIMFRAC
 70
     0
  9
$DIMLDRBLK
  1

  9
$DIMLUNIT
 70
     2
  9
$DIMLWD
 70
    -2
  9
$DIMLWE
 70
    -2
  9
$DIMTMOVE
 70
     0
  9
$LUNITS
 70
     2
  9
$LUPREC
 70
     2
  9
$SKETCHINC
 40
1.0
  9
$FILLETRAD
 40
10.0
  9
$AUNITS
 70
     0
  9
$AUPREC
 70
     2
  9
$MENU
  1
.
  9
$ELEVATION
 40
0.0
  9
$PELEVATION
 40
0.0
  9
$THICKNESS
 40
0.0
  9
$LIMCHECK
 70
     0
  9
$CHAMFERA
 40
0.0
  9
$CHAMFERB
 40
0.0
  9
$CHAMFERC
 40
0.0
  9
$CHAMFERD
 40
0.0
  9
$SKPOLY
 70
     0
  9
$TDCREATE
 40
2458985.718254259
  9
$TDUCREATE
 40
2458985.593254259
  9
$TDUPDATE
 40
2458985.718254664
  9
$TDUUPDATE
 40
2458985.593254664
  9
$TDINDWG
 40
0.0000000116
  9
$TDUSRTIMER
 40
0.0000000116
  9
$USRTIMER
 70
     1
  9
$ANGBASE
 50
0.0
  9
$ANGDIR
 70
     0
  9
$PDMODE
 70
     0
  9
$PDSIZE
 40
-1.0
  9
$PLINEWID
 40
0.0
  9
$SPLFRAME
 70
     0
  9
$SPLINETYPE
 70
     6
  9
$SPLINESEGS
 70
     8
  9
$HANDSEED
  5
E1
  9
$SURFTAB1
 70
     6
  9
$SURFTAB2
 70
     6
  9
$SURFTYPE
 70
     6
  9
$SURFU
 70
     6
  9
$SURFV
 70
     6
  9
$UCSBASE
  2

  9
$UCSNAME
  2

  9
$UCSORG
 10
0.0
 20
0.0
 30
0.0
  9
$UCSXDIR
 10
1.0
 20
0.0
 30
0.0
  9
$UCSYDIR
 10
0.0
 20
1.0
 30
0.0
  9
$UCSORTHOREF
  2

  9
$UCSORTHOVIEW
 70
     0
  9
$UCSORGTOP
 10
0.0
 20
0.0
 30
0.0
  9
$UCSORGBOTTOM
 10
0.0
 20
0.0
 30
0.0
  9
$UCSORGLEFT
 10
0.0
 20
0.0
 30
0.0
  9
$UCSORGRIGHT
 10
0.0
 20
0.0
 30
0.0
  9
$UCSORGFRONT
 10
0.0
 20
0.0
 30
0.0
  9
$UCSORGBACK
 10
0.0
 20
0.0
 30
0.0
  9
$PUCSBASE
  2

  9
$PUCSNAME
  2

  9
$PUCSORG
 10
0.0
 20
0.0
 30
0.0
  9
$PUCSXDIR
 10
1.0
 20
0.0
 30
0.0
  9
$PUCSYDIR
 10
0.0
 20
1.0
 30
0.0
  9
$PUCSORTHOREF
  2

  9
$PUCSORTHOVIEW
 70
     0
  9
$PUCSORGTOP
 10
0.0
 20
0.0
 30
0.0
  9
$PUCSORGBOTTOM
 10
0.0
 20
0.0
 30
0.0
  9
$PUCSORGLEFT
 10
0.0
 20
0.0
 30
0.0
  9
$PUCSORGRIGHT
 10
0.0
 20
0.0
 30
0.0
  9
$PUCSORGFRONT
 10
0.0
 20
0.0
 30
0.0
  9
$PUCSORGBACK
 10
0.0
 20
0.0
 30
0.0
  9
$USERI1
 70
     0
  9
$USERI2
 70
     0
  9
$USERI3
 70
     0
  9
$USERI4
 70
     0
  9
$USERI5
 70
     0
  9
$USERR1
 40
0.0
  9
$USERR2
 40
0.0
  9
$USERR3
 40
0.0
  9
$USERR4
 40
0.0
  9
$USERR5
 40
0.0
  9
$WORLDVIEW
 70
     1
  9
$SHADEDGE
 70
     3
  9
$SHADEDIF
 70
    70
  9
$TILEMODE
 70
     1
  9
$MAXACTVP
 70
    64
  9
$PINSBASE
 10
0.0
 20
0.0
 30
0.0
  9
$PLIMCHECK
 70
     0
  9
$PEXTMIN
 10
1.0000000000E+20
 20
1.0000000000E+20
 30
1.0000000000E+20
  9
$PEXTMAX
 10
-1.0000000000E+20
 20
-1.0000000000E+20
 30
-1.0000000000E+20
  9
$PLIMMIN
 10
0.0
 20
0.0
  9
$PLIMMAX
 10
420.0
 20
297.0
  9
$UNITMODE
 70
     0
  9
$VISRETAIN
 70
     1
  9
$PLINEGEN
 70
     0
  9
$PSLTSCALE
 70
     1
  9
$TREEDEPTH
 70
  3020
  9
$CMLSTYLE
  2
Standard
  9
$CMLJUST
 70
     0
  9
$CMLSCALE
 40
20.0
  9
$PROXYGRAPHICS
 70
     1
  9
$MEASUREMENT
 70
     1
  9
$CELWEIGHT
370
    -1
  9
$ENDCAPS
280
     0
  9
$JOINSTYLE
280
     0
  9
$LWDISPLAY
290
     1
  9
$INSUNITS
 70
     4
  9
$HYPERLINKBASE
  1

  9
$STYLESHEET
  1

  9
$XEDIT
290
     1
  9
$CEPSNTYPE
380
     0
  9
$PSTYLEMODE
290
     1
  9
$FINGERPRINTGUID
  2
{e71f7694-8b00-4149-b620-6bbbfedd66ec}
  9
$VERSIONGUID
  2
{FAEB1C32-E019-11D5-929B-00C0DF256EC4}
  9
$EXTNAMES
290
     1
  9
$PSVPSCALE
 40
0.0
  9
$OLESTARTUP
290
     0
  0
ENDSEC
  0
SECTION
  2
CLASSES
  0
CLASS
  1
ACDBDICTIONARYWDFLT
  2
AcDbDictionaryWithDefault
  3
ObjectDBX Classes
 90
        0
280
     0
281
     0
  0
CLASS
  1
VISUALSTYLE
  2
AcDbVisualStyle
  3
ObjectDBX Classes
 90
     4095
280
     0
281
     0
  0
CLASS
  1
MATERIAL
  2
AcDbMaterial
  3
ObjectDBX Classes
 90
     1153
280
     0
281
     0
  0
CLASS
  1
SCALE
  2
AcDbScale
  3
ObjectDBX Classes
 90
     1153
280
     0
281
     0
  0
CLASS
  1
TABLESTYLE
  2
AcDbTableStyle
  3
ObjectDBX Classes
 90
     4095
280
     0
281
     0
  0
CLASS
  1
MLEADERSTYLE
  2
AcDbMLeaderStyle
  3
ACDB_MLEADERSTYLE_CLASS
 90
     4095
280
     0
281
     0
  0
CLASS
  1
SUN
  2
AcDbSun
  3
SCENEOE
 90
     1153
280
     0
281
     0
  0
CLASS
  1
ACDBPLACEHOLDER
  2
AcDbPlaceHolder
  3
ObjectDBX Classes
 90
        0
280
     0
281
     0
  0
CLASS
  1
LAYOUT
  2
AcDbLayout
  3
ObjectDBX Classes
 90
        0
280
     0
281
     0
  0
ENDSEC
  0
SECTION
  2
TABLES
  0
TABLE
  2
VPORT
  5
8
330
0
100
AcDbSymbolTable
 70
     1
  0
VPORT
  5
29
330
8
100
AcDbSymbolTableRecord
100
AcDbViewportTableRecord
  2
*Active
 70
     0
 10
0.0
 20
0.0
 11
1.0
 21
1.0
 12
139.7
 22
107.95
 13
0.0
 23
0.0
 14
10.0
 24
10.0
 15
10.0
 25
10.0
 16
0.0
 26
0.0
 36
1.0
 17
0.0
 27
0.0
 37
0.0
 40
215.9
 41
1.2941176471
 42
50.0
 43
0.0
 44
0.0
 50
0.0
 51
0.0
 71
     0
 72
  2000
 73
     1
 74
     3
 75
     0
 76
     0
 77
     0
 78
     0
281
     0
 65
     1
110
0.0
120
0.0
130
0.0
111
1.0
121
0.0
131
0.0
112
0.0
122
1.0
132
0.0
 79
     0
146
0.0
  0
ENDTAB
  0
TABLE
  2
LTYPE
  5
5
330
0
100
AcDbSymbolTable
 70
     6
  0
LTYPE
  5
14
330
5
100
AcDbSymbolTableRecord
100
AcDbLinetypeTableRecord
  2
ByBlock
 70
     0
  3

 72
    65
 73
     0
 40
0.0
  0
LTYPE
  5
15
330
5
100
AcDbSymbolTableRecord
100
AcDbLinetypeTableRecord
  2
ByLayer
 70
     0
  3

 72
    65
 73
     0
 40
0.0
  0
LTYPE
  5
16
330
5
100
AcDbSymbolTableRecord
100
AcDbLinetypeTableRecord
  2
Continuous
 70
     0
  3
Solid line
 72
    65
 73
     0
 40
0.0
  0
LTYPE
  5
6E
330
5
100
AcDbSymbolTableRecord
100
AcDbLinetypeTableRecord
  2
HIDDEN
 70
     0
  3
Hidden __ __ __ __ __ __ __ __ __ __ __ __ __ __
 72
    65
 73
     2
 40
1.905
 49
1.27
 74
     0
 49
-0.635
 74
     0
  0
LTYPE
  5
6F
330
5
100
AcDbSymbolTableRecord
100
AcDbLinetypeTableRecord
  2
PHANTOM
 70
     0
  3
Phantom ______  __  __  ______  __  __  ______
 72
    65
 73
     6
 40
12.7
 49
6.35
 74
     0
 49
-1.27
 74
     0
 49
1.27
 74
     0
 49
-1.27
 74
     0
 49
1.27
 74
     0
 49
-1.27
 74
     0
  0
LTYPE
  5
70
330
5
100
AcDbSymbolTableRecord
100
AcDbLinetypeTableRecord
  2
CENTER
 70
     0
  3
Center ____ _ ____ _ ____ _ ____ _ ____ _ ____
 72
    65
 73
     4
 40
10.16
 49
6.35
 74
     0
 49
-1.27
 74
     0
 49
1.27
 74
     0
 49
-1.27
 74
     0
  0
LTYPE
  5
71
330
5
100
AcDbSymbolTableRecord
100
AcDbLinetypeTableRecord
  2
CENTERX2
 70
     0
  3
Center (2x) ________  __  ________  __  _____
 72
    65
 73
     4
 40
20.32
 49
12.7
 74
     0
 49
-2.54
 74
     0
 49
2.54
 74
     0
 49
-2.54
 74
     0
  0
LTYPE
  5
72
330
5
100
AcDbSymbolTableRecord
100
AcDbLinetypeTableRecord
  2
DOT2
 70
     0
  3
Dot (.5x) ........................................
 72
    65
 73
     2
 40
0.635
 49
0.0
 74
     0
 49
-0.635
 74
     0
  0
ENDTAB
  0
TABLE
  2
LAYER
  5
2
330
0
100
AcDbSymbolTable
 70
    17
  0
LAYER
  5
10
330
2
100
AcDbSymbolTableRecord
100
AcDbLayerTableRecord
  2
0
 70
     0
 62
     7
  6
Continuous
370
    -3
390
F
  0
LAYER
  5
73
330
2
100
AcDbSymbolTableRecord
100
AcDbLayerTableRecord
  2
FORMAT
 70
     0
 62
     7
  6
Continuous
370
    -3
390
F
  0
LAYER
  5
74
330
2
100
AcDbSymbolTableRecord
100
AcDbLayerTableRecord
  2
YARDIMCI_GEOMETRI
 70
     0
 62
    -6
  6
Continuous
290
     0
370
    -3
390
F
  0
LAYER
  5
75
330
2
100
AcDbSymbolTableRecord
100
AcDbLayerTableRecord
  2
SAYFA_CERCEVESI
 70
     0
 62
     7
  6
Continuous
370
    25
390
F
  0
LAYER
  5
76
330
2
100
AcDbSymbolTableRecord
100
AcDbLayerTableRecord
  2
ANTET
 70
     0
 62
     7
  6
Continuous
370
    -3
390
F
  0
LAYER
  5
77
330
2
100
AcDbSymbolTableRecord
100
AcDbLayerTableRecord
  2
OLCU
 70
     0
 62
   150
  6
Continuous
370
    -3
390
F
  0
LAYER
  5
78
330
2
100
AcDbSymbolTableRecord
100
AcDbLayerTableRecord
  2
METIN
 70
     0
 62
    96
  6
Continuous
370
    -3
390
F
  0
LAYER
  5
79
330
2
100
AcDbSymbolTableRecord
100
AcDbLayerTableRecord
  2
BALON
 70
     0
 62
     5
  6
Continuous
370
    -3
390
F
  0
LAYER
  5
7A
330
2
100
AcDbSymbolTableRecord
100
AcDbLayerTableRecord
  2
VURGU
 70
     0
 62
     7
  6
Continuous
370
    -3
390
F
  0
LAYER
  5
7B
330
2
100
AcDbSymbolTableRecord
100
AcDbLayerTableRecord
  2
SILIK
 70
     0
 62
     7
  6
Continuous
370
    -3
390
F
  0
LAYER
  5
7C
330
2
100
AcDbSymbolTableRecord
100
AcDbLayerTableRecord
  2
MODEL
 70
     0
 62
     7
  6
Continuous
370
    -3
390
F
  0
LAYER
  5
7D
330
2
100
AcDbSymbolTableRecord
100
AcDbLayerTableRecord
  2
DETAYLANDıRMA
 70
     0
 62
   190
  6
Continuous
370
    -3
390
F
  0
LAYER
  5
7E
330
2
100
AcDbSymbolTableRecord
100
AcDbLayerTableRecord
  2
TOLERANS
 70
     0
 62
   230
  6
Continuous
370
    -3
390
F
  0
LAYER
  5
7F
330
2
100
AcDbSymbolTableRecord
100
AcDbLayerTableRecord
  2
MERKEZ_CIZGILERI
 70
     0
 62
    30
  6
Continuous
370
    -3
390
F
  0
LAYER
  5
80
330
2
100
AcDbSymbolTableRecord
100
AcDbLayerTableRecord
  2
KESIT-DETAY_CIZGILERI
 70
     0
 62
     7
  6
Continuous
370
    -3
390
F
  0
LAYER
  5
81
330
2
100
AcDbSymbolTableRecord
100
AcDbLayerTableRecord
  2
\U+041E\U+0421\U+0415\U+0412\U+042B\U+0415
 70
     0
 62
     7
  6
Continuous
370
    -3
390
F
  0
LAYER
  5
82
330
2
100
AcDbSymbolTableRecord
100
AcDbLayerTableRecord
  2
\U+0412\U+041E\U+0414\U+042F\U+041D\U+042B\U+0415_\U+0417\U+041D\U+0410\U+041A\U+0418
 70
     0
 62
    11
  6
Continuous
370
    -3
390
F
  0
ENDTAB
  0
TABLE
  2
STYLE
  5
3
330
0
100
AcDbSymbolTable
 70
     1
  0
STYLE
  5
11
330
3
100
AcDbSymbolTableRecord
100
AcDbTextStyleTableRecord
  2
Standard
 70
     0
 40
0.0
 41
1.0
 50
0.0
 71
     0
 42
3.5
  3
txt
  4

  0
ENDTAB
  0
TABLE
  2
VIEW
  5
6
330
0
100
AcDbSymbolTable
 70
     0
  0
ENDTAB
  0
TABLE
  2
UCS
  5
7
330
0
100
AcDbSymbolTable
 70
     0
  0
ENDTAB
  0
TABLE
  2
APPID
  5
9
330
0
100
AcDbSymbolTable
 70
     1
  0
APPID
  5
12
330
9
100
AcDbSymbolTableRecord
100
AcDbRegAppTableRecord
  2
ACAD
 70
     0
  0
ENDTAB
  0
TABLE
  2
DIMSTYLE
  5
A
330
0
100
AcDbSymbolTable
 70
     1
100
AcDbDimStyleTable
  0
DIMSTYLE
105
27
330
A
100
AcDbSymbolTableRecord
100
AcDbDimStyleTableRecord
  2
ISO-25
 70
     0
 41
2.5
 42
0.625
 43
3.75
 44
1.25
 73
     0
 74
     0
 77
     1
 78
     8
140
2.5
141
2.5
143
0.0393700787
147
0.625
171
     3
172
     1
178
     0
271
     2
272
     2
274
     3
278
    44
283
     0
284
     8
340
11
  0
ENDTAB
  0
TABLE
  2
BLOCK_RECORD
  5
1
330
0
100
AcDbSymbolTable
 70
     3
  0
BLOCK_RECORD
  5
1F
330
1
100
AcDbSymbolTableRecord
100
AcDbBlockTableRecord
  2
*Model_Space
340
22
  0
BLOCK_RECORD
  5
1B
330
1
100
AcDbSymbolTableRecord
100
AcDbBlockTableRecord
  2
*Paper_Space
340
1E
  0
BLOCK_RECORD
  5
23
330
1
100
AcDbSymbolTableRecord
100
AcDbBlockTableRecord
  2
*Paper_Space0
340
26
  0
BLOCK_RECORD
  5
B1
330
1
100
AcDbSymbolTableRecord
100
AcDbBlockTableRecord
  2
SW_CENTERMARKSYMBOL_0
340
0
102
{BLKREFS
331
BC
102
}
  0
BLOCK_RECORD
  5
C7
330
1
100
AcDbSymbolTableRecord
100
AcDbBlockTableRecord
  2
SW_CENTERMARKSYMBOL_1
340
0
102
{BLKREFS
331
D2
102
}
  0
ENDTAB
  0
ENDSEC
  0
SECTION
  2
BLOCKS
  0
BLOCK
  5
20
330
1F
100
AcDbEntity
  8
0
100
AcDbBlockBegin
  2
*Model_Space
 70
     0
 10
0.0
 20
0.0
 30
0.0
  3
*Model_Space
  1

  0
ENDBLK
  5
21
330
1F
100
AcDbEntity
  8
0
100
AcDbBlockEnd
  0
BLOCK
  5
1C
330
1B
100
AcDbEntity
 67
     1
  8
0
100
AcDbBlockBegin
  2
*Paper_Space
 70
     0
 10
0.0
 20
0.0
 30
0.0
  3
*Paper_Space
  1

  0
ENDBLK
  5
1D
330
1B
100
AcDbEntity
 67
     1
  8
0
100
AcDbBlockEnd
  0
BLOCK
  5
24
330
23
100
AcDbEntity
  8
0
100
AcDbBlockBegin
  2
*Paper_Space0
 70
     0
 10
0.0
 20
0.0
 30
0.0
  3
*Paper_Space0
  1

  0
ENDBLK
  5
25
330
23
100
AcDbEntity
  8
0
100
AcDbBlockEnd
  0
BLOCK
  5
B2
330
B1
100
AcDbEntity
  8
0
100
AcDbBlockBegin
  2
SW_CENTERMARKSYMBOL_0
 70
     0
 10
0.0
 20
0.0
 30
0.0
  3
SW_CENTERMARKSYMBOL_0
  1

  0
LINE
  5
B4
330
B1
100
AcDbEntity
  8
FORMAT
 62
     0
100
AcDbLine
 10
0.0
 20
0.0
 30
0.0
 11
0.0
 21
2.5
 31
0.0
  0
LINE
  5
B5
330
B1
100
AcDbEntity
  8
FORMAT
 62
     0
100
AcDbLine
 10
0.0
 20
0.0
 30
0.0
 11
-2.5
 21
0.0
 31
0.0
  0
LINE
  5
B6
330
B1
100
AcDbEntity
  8
FORMAT
 62
     0
100
AcDbLine
 10
0.0
 20
0.0
 30
0.0
 11
0.0
 21
-2.5
 31
0.0
  0
LINE
  5
B7
330
B1
100
AcDbEntity
  8
FORMAT
 62
     0
100
AcDbLine
 10
0.0
 20
0.0
 30
0.0
 11
2.5
 21
0.0
 31
0.0
  0
LINE
  5
B8
330
B1
100
AcDbEntity
  8
FORMAT
 62
     0
100
AcDbLine
 10
0.0
 20
5.0
 30
0.0
 11
0.0
 21
180.0
 31
0.0
  0
LINE
  5
B9
330
B1
100
AcDbEntity
  8
FORMAT
 62
     0
100
AcDbLine
 10
-5.0
 20
0.0
 30
0.0
 11
-180.0
 21
0.0
 31
0.0
  0
LINE
  5
BA
330
B1
100
AcDbEntity
  8
FORMAT
 62
     0
100
AcDbLine
 10
0.0
 20
-5.0
 30
0.0
 11
0.0
 21
-180.0
 31
0.0
  0
LINE
  5
BB
330
B1
100
AcDbEntity
  8
FORMAT
 62
     0
100
AcDbLine
 10
5.0
 20
0.0
 30
0.0
 11
180.0
 21
0.0
 31
0.0
  0
ENDBLK
  5
B3
330
B1
100
AcDbEntity
  8
0
100
AcDbBlockEnd
  0
BLOCK
  5
C8
330
C7
100
AcDbEntity
  8
0
100
AcDbBlockBegin
  2
SW_CENTERMARKSYMBOL_1
 70
     0
 10
0.0
 20
0.0
 30
0.0
  3
SW_CENTERMARKSYMBOL_1
  1

  0
LINE
  5
CA
330
C7
100
AcDbEntity
  8
FORMAT
 62
     0
100
AcDbLine
 10
0.0
 20
0.0
 30
0.0
 11
0.0
 21
2.5
 31
0.0
  0
LINE
  5
CB
330
C7
100
AcDbEntity
  8
FORMAT
 62
     0
100
AcDbLine
 10
0.0
 20
0.0
 30
0.0
 11
-2.5
 21
0.0
 31
0.0
  0
LINE
  5
CC
330
C7
100
AcDbEntity
  8
FORMAT
 62
     0
100
AcDbLine
 10
0.0
 20
0.0
 30
0.0
 11
0.0
 21
-2.5
 31
0.0
  0
LINE
  5
CD
330
C7
100
AcDbEntity
  8
FORMAT
 62
     0
100
AcDbLine
 10
0.0
 20
0.0
 30
0.0
 11
2.5
 21
0.0
 31
0.0
  0
LINE
  5
CE
330
C7
100
AcDbEntity
  8
FORMAT
 62
     0
100
AcDbLine
 10
0.0
 20
5.0
 30
0.0
 11
0.0
 21
180.0
 31
0.0
  0
LINE
  5
CF
330
C7
100
AcDbEntity
  8
FORMAT
 62
     0
100
AcDbLine
 10
-5.0
 20
0.0
 30
0.0
 11
-180.0
 21
0.0
 31
0.0
  0
LINE
  5
D0
330
C7
100
AcDbEntity
  8
FORMAT
 62
     0
100
AcDbLine
 10
0.0
 20
-5.0
 30
0.0
 11
0.0
 21
-180.0
 31
0.0
  0
LINE
  5
D1
330
C7
100
AcDbEntity
  8
FORMAT
 62
     0
100
AcDbLine
 10
5.0
 20
0.0
 30
0.0
 11
180.0
 21
0.0
 31
0.0
  0
ENDBLK
  5
C9
330
C7
100
AcDbEntity
  8
0
100
AcDbBlockEnd
  0
ENDSEC
  0
SECTION
  2
ENTITIES
  0
LINE
  5
83
330
1F
100
AcDbEntity
  8
0
  6
Continuous
 62
     7
370
    25
100
AcDbLine
 10
-41.4164040164
 20
71.5355787684
 30
0.0
 11
-41.4164040164
 21
-138.9415200542
 31
0.0
  0
LINE
  5
84
330
1F
100
AcDbEntity
  8
0
  6
Continuous
 62
     7
370
    25
100
AcDbLine
 10
313.5835852547
 20
-138.9415200542
 30
0.0
 11
313.5835852547
 21
71.5355787684
 31
0.0
  0
ARC
  5
85
330
1F
100
AcDbEntity
  8
0
  6
Continuous
 62
     7
370
    25
100
AcDbCircle
 10
313.5835906191
 20
71.5355726246
 30
0.0
 40
354.9999999999999
100
AcDbArc
 50
135.0
 51
180.0
  0
LINE
  5
86
330
1F
100
AcDbEntity
  8
0
  6
Continuous
 62
     7
370
    25
100
AcDbLine
 10
216.5721383019
 20
476.5699569394
 30
0.0
 11
62.5606801434
 21
322.5584689786
 31
0.0
  0
LINE
  5
87
330
1F
100
AcDbEntity
  8
0
  6
Continuous
 62
     7
370
    25
100
AcDbLine
 10
313.5835852547
 20
71.5355787684
 30
0.0
 11
467.5950583144
 21
225.5470220257
 31
0.0
  0
LINE
  5
88
330
1F
100
AcDbEntity
  8
0
  6
Continuous
 62
     7
370
    25
100
AcDbLine
 10
136.0835906191
 20
-138.9415200542
 30
0.0
 11
313.5835852547
 21
-138.9415200542
 31
0.0
  0
LINE
  5
89
330
1F
100
AcDbEntity
  8
0
  6
Continuous
 62
     7
370
    25
100
AcDbLine
 10
-41.4164040164
 20
-138.9415200542
 30
0.0
 11
136.0835906191
 21
-138.9415200542
 31
0.0
  0
LWPOLYLINE
  5
8A
330
1F
100
AcDbEntity
  8
0
  6
Continuous
 62
     7
370
    25
100
AcDbPolyline
 90
       37
 70
   128
 43
0.0
 10
342.0835908576
 20
351.0584894826
 10
347.6747300549
 20
345.467335384
 10
353.2547678872
 20
339.8872975518
 10
358.8126327916
 20
334.3294326474
 10
364.3372830077
 20
328.8047973324
 10
369.8177363797
 20
323.3243290593
 10
375.2431448622
 20
317.8989354779
 10
380.6027051135
 20
312.5393752267
 10
385.8857926055
 20
307.2562877347
 10
391.0819169207
 20
302.0601634194
 10
396.1807664557
 20
296.9613138844
 10
401.1722084208
 20
291.9698719193
 10
406.0463186427
 20
287.0957616974
 10
410.7934411688
 20
282.3486391713
 10
415.4041584654
 20
277.7379218747
 10
419.8692914172
 20
273.2727591206
 10
424.1800185366
 20
268.9620618035
 10
428.3277269526
 20
264.8143533875
 10
432.3041912242
 20
260.837889116
 10
436.1015435382
 20
257.0405069997
 10
439.712243907
 20
253.4298364331
 10
443.1291099711
 20
250.012970369
 10
446.3453468009
 20
246.7967335393
 10
449.3545766993
 20
243.7874738385
 10
452.150839202
 20
240.9912113358
 10
454.7285910769
 20
238.4134892632
 10
457.0826765223
 20
236.0594038178
 10
459.2084463759
 20
233.9336339642
 10
461.1016687079
 20
232.0403818299
 10
462.758618228
 20
230.3834621121
 10
464.1759570761
 20
228.966123264
 10
465.3508838339
 20
227.7911965062
 10
466.2810739203
 20
226.8609766175
 10
466.9647093936
 20
226.1773709466
 10
467.4003895445
 20
225.7416907956
 10
467.5872501059
 20
225.5548004319
 10
467.5950583144
 20
225.5470220257
  0
LWPOLYLINE
  5
8B
330
1F
100
AcDbEntity
  8
0
  6
Continuous
 62
     7
370
    25
100
AcDbPolyline
 90
       37
 70
   128
 43
0.0
 10
216.5721383019
 20
476.5699569394
 10
216.5799241586
 20
476.5621487309
 10
216.7667996212
 20
476.3752881695
 10
217.2024797721
 20
475.9395782162
 10
217.8861003442
 20
475.2559725453
 10
218.8162978812
 20
474.3257824589
 10
219.9912395402
 20
473.1508557011
 10
221.4085783883
 20
471.733516853
 10
223.0655055566
 20
470.0765673329
 10
224.9587353392
 20
468.1833450009
 10
227.0845051928
 20
466.057545345
 10
229.4385980888
 20
463.7034598996
 10
232.016327612
 20
461.125737827
 10
234.8125975652
 20
458.3295051266
 10
237.8218349143
 20
455.3202454259
 10
241.0380791946
 20
452.1039787938
 10
244.4549378081
 20
448.687142532
 10
248.0656307264
 20
445.0764123608
 10
251.8629830404
 20
441.2790600468
 10
255.8394622131
 20
437.3025957753
 10
259.9871780797
 20
433.1548873593
 10
264.2978753968
 20
428.8441602399
 10
268.7630232497
 20
424.3790570904
 10
273.3737405463
 20
419.7683397938
 10
278.1208630725
 20
415.0211874653
 10
282.9949881955
 20
410.1470772435
 10
287.9864301606
 20
405.1556650807
 10
293.0852647944
 20
400.0567857434
 10
298.2813891097
 20
394.8606912305
 10
303.5644766017
 20
389.5775739361
 10
308.9240368529
 20
384.2180434872
 10
314.3494453354
 20
378.7926499058
 10
319.8298987074
 20
373.3121816327
 10
325.3545489236
 20
367.7875463177
 10
330.912413828
 20
362.229651611
 10
336.4924516602
 20
356.6496137787
 10
342.0835908576
 20
351.0584894826
  0
LINE
  5
8C
330
1F
100
AcDbEntity
  8
0
  6
Continuous
 62
     1
370
    25
100
AcDbLine
 10
-41.4164040164
 20
71.5355787684
 30
0.0
 11
313.5835852547
 21
71.5355787684
 31
0.0
  0
LWPOLYLINE
  5
8D
330
1F
100
AcDbEntity
  8
0
  6
Continuous
 62
     1
370
    25
100
AcDbPolyline
 90
       72
 70
   128
 43
0.0
 10
62.5606801434
 20
322.5584689786
 10
62.5918384715
 20
322.5273255517
 10
62.8409635349
 20
322.2782079388
 10
63.338729374
 20
321.780419748
 10
64.084137611
 20
321.0350338627
 10
65.0757204815
 20
320.0434509923
 10
66.311496131
 20
318.8076678921
 10
67.7890133186
 20
317.3301581551
 10
69.5053439661
 20
315.6138126065
 10
71.4570831581
 20
313.6620883156
 10
73.6403454168
 20
311.4788297822
 10
76.050801955
 20
309.0683583428
 10
78.6836657746
 20
306.4355019738
 10
81.5337102934
 20
303.5854462792
 10
84.5952767952
 20
300.5238835026
 10
87.8622893317
 20
297.2568635155
 10
91.3282584472
 20
293.7909130265
 10
94.9863035305
 20
290.1328567673
 10
98.8291602655
 20
286.2899963071
 10
102.849202983
 20
282.2699610402
 10
107.0384465231
 20
278.0807081868
 10
111.3885760381
 20
273.7305823971
 10
115.8909525796
 20
269.2281965424
 10
120.5366382449
 20
264.5825211217
 10
125.3164101465
 20
259.8027650525
 10
130.2207771762
 20
254.8983756711
 10
135.2400030548
 20
249.8791579415
 10
140.3641219324
 20
244.7550360371
 10
145.5829607396
 20
239.5362023522
 10
150.88615828
 20
234.2329982926
 10
156.2631845548
 20
228.8559738804
 10
161.703365676
 20
223.4157983472
 10
167.1958983018
 20
217.9232601334
 10
172.7298785074
 20
212.3892966916
 10
178.2943185492
 20
206.8248454739
 10
183.878174804
 20
201.2409929444
 10
189.4703570827
 20
195.6487957646
 10
195.0597602947
 20
190.0594000031
 10
200.635294251
 20
184.4838623215
 10
206.1858799382
 20
178.9332691838
 10
211.7005091234
 20
173.4186474492
 10
217.1682220026
 20
167.95093457
 10
222.5781705304
 20
162.5410083939
 10
227.919603519
 20
157.1995679547
 10
233.1819262429
 20
151.9372228791
 10
238.354692988
 20
146.7644635846
 10
243.4276219531
 20
141.6915420701
 10
248.3906548544
 20
136.7285017182
 10
253.2339196725
 20
131.8852369
 10
257.9478200598
 20
127.1713439633
 10
262.5229831858
 20
122.5961808373
 10
266.9503416939
 20
118.1688372304
 10
271.2210889979
 20
113.8980750252
 10
275.326746337
 20
109.7924176861
 10
279.2591776772
 20
105.8599863459
 10
283.0105599089
 20
102.1086041142
 10
286.5734424515
 20
98.5457215716
 10
289.9407770558
 20
95.1783869673
 10
293.105843298
 20
92.0133207251
 10
296.0623826905
 20
89.0567664315
 10
298.8045241757
 20
86.3146398474
 10
301.3268139287
 20
83.7923500945
 10
303.6242451592
 20
81.4949188639
 10
305.692258112
 20
79.4269059111
 10
307.5267400666
 20
77.5924239566
 10
309.1240700408
 20
75.9950939824
 10
310.4810442849
 20
74.6381197383
 10
311.5950103922
 20
73.5241536309
 10
312.4637182875
 20
72.6554457356
 10
313.0854543372
 20
72.033709686
 10
313.458996646
 20
71.6601673772
 10
313.5835852547
 20
71.5355787684
  0
LINE
  5
8E
330
1F
100
AcDbEntity
  8
0
  6
Continuous
 62
     7
370
    25
100
AcDbLine
 10
-638.8062910619
 20
351.0584894826
 30
0.0
 11
-638.8062910619
 21
197.0470313241
 31
0.0
  0
LINE
  5
8F
330
1F
100
AcDbEntity
  8
0
  6
Continuous
 62
     7
370
    25
100
AcDbLine
 10
-283.8063017908
 20
197.0470313241
 30
0.0
 11
-283.8063017908
 21
351.0584894826
 31
0.0
  0
LINE
  5
90
330
1F
100
AcDbEntity
  8
0
  6
Continuous
 62
     7
370
    25
100
AcDbLine
 10
-638.8062910619
 20
197.0470313241
 30
0.0
 11
-638.8062910619
 21
71.5355787684
 31
0.0
  0
LINE
  5
91
330
1F
100
AcDbEntity
  8
0
  6
Continuous
 62
     7
370
    25
100
AcDbLine
 10
-283.8063017908
 20
71.5355787684
 30
0.0
 11
-283.8063017908
 21
197.0470313241
 31
0.0
  0
LINE
  5
92
330
1F
100
AcDbEntity
  8
0
  6
Continuous
 62
     7
370
    25
100
AcDbLine
 10
-638.8062910619
 20
71.5355787684
 30
0.0
 11
-638.8062910619
 21
-138.9415200542
 31
0.0
  0
LINE
  5
93
330
1F
100
AcDbEntity
  8
0
  6
Continuous
 62
     7
370
    25
100
AcDbLine
 10
-283.8063017908
 20
-138.9415200542
 30
0.0
 11
-283.8063017908
 21
71.5355787684
 31
0.0
  0
LWPOLYLINE
  5
94
330
1F
100
AcDbEntity
  8
0
  6
Continuous
 62
     7
370
    25
100
AcDbPolyline
 90
      142
 70
   128
 43
0.0
 10
-638.8062910619
 20
351.0584894826
 10
-638.6300848308
 20
345.467335384
 10
-638.1018237653
 20
339.8872975518
 10
-637.2225509468
 20
334.3294326474
 10
-635.994009811
 20
328.8047973324
 10
-634.4186441484
 20
323.3243290593
 10
-632.4995683017
 20
317.8989354779
 10
-630.2406267705
 20
312.5393752267
 10
-627.6462601009
 20
307.2562877347
 10
-624.7216538969
 20
302.0601634194
 10
-621.472589809
 20
296.9613138844
 10
-617.9055349412
 20
291.9698719193
 10
-614.0275822464
 20
287.0957616974
 10
-609.8463909212
 20
282.3486391713
 10
-605.370305616
 20
277.7379218747
 10
-600.6081925216
 20
273.2727591206
 10
-595.5694989744
 20
268.9620618035
 10
-590.2642385545
 20
264.8143533875
 10
-584.7029538336
 20
260.837889116
 10
-578.896671671
 20
257.0405069997
 10
-572.8569255653
 20
253.4298364331
 10
-566.5957035008
 20
250.012970369
 10
-560.1254404965
 20
246.7967335393
 10
-553.4589813533
 20
243.7874738385
 10
-546.6095583025
 20
240.9912113358
 10
-539.590776104
 20
238.4134892632
 10
-532.4165673438
 20
236.0594038178
 10
-525.1011775318
 20
233.9336339642
 10
-517.6591241243
 20
232.0403818299
 10
-510.1051927987
 20
230.3834621121
 10
-502.4543741229
 20
228.966123264
 10
-494.7218598309
 20
227.7911965062
 10
-486.9229999813
 20
226.8609766175
 10
-479.0732824686
 20
226.1773709466
 10
-471.1882892507
 20
225.7416907956
 10
-463.2836763258
 20
225.5548004319
 10
-455.3751378763
 20
225.617117088
 10
-447.478375535
 20
225.92846195
 10
-439.6090676519
 20
226.4882687737
 10
-431.7828362319
 20
227.2953752686
 10
-424.015220392
 20
228.3482019116
 10
-416.3216428342
 20
229.6446625401
 10
-408.7173791113
 20
231.1821643521
 10
-401.2175278249
 20
232.957697313
 10
-393.836975235
 20
234.9676851441
 10
-386.5903766337
 20
237.2081939389
 10
-379.492119092
 20
239.6746937443
 10
-372.5562991086
 20
242.3623863866
 10
-365.7966779056
 20
245.2658478429
 10
-359.22668888
 20
248.3793560673
 10
-352.8593630972
 20
251.6967419793
 10
-346.7073516431
 20
255.2113894631
 10
-340.7828660193
 20
258.9163247754
 10
-335.0976632419
 20
262.8042165448
 10
-329.6630458417
 20
266.8673161675
 10
-324.4897948089
 20
271.0975770165
 10
-319.5881770435
 20
275.4865948369
 10
-314.9679230037
 20
280.0256375481
 10
-310.6382118049
 20
284.7057346512
 10
-306.6076414171
 20
289.517528217
 10
-302.8841988626
 20
294.4515411069
 10
-299.4753049198
 20
299.4979385544
 10
-296.3876949134
 20
304.6467069794
 10
-293.6275379243
 20
309.8875943829
 10
-291.2002728763
 20
315.210259359
 10
-289.1107426467
 20
320.6040624787
 10
-287.3630897584
 20
326.0583643128
 10
-285.960786182
 20
331.5622870137
 10
-284.9066184345
 20
337.104893129
 10
-284.2026726785
 20
342.6752452065
 10
-283.8503496233
 20
348.2622269799
 10
-283.8503496233
 20
353.8547519852
 10
-284.2026726785
 20
359.4417337586
 10
-284.9066184345
 20
365.0120560338
 10
-285.960786182
 20
370.5546919514
 10
-287.3630897584
 20
376.05858485
 10
-289.1107426467
 20
381.5128866841
 10
-291.2002728763
 20
386.9066898038
 10
-293.6275379243
 20
392.2293845822
 10
-296.3876949134
 20
397.4702421834
 10
-299.4753049198
 20
402.6190106084
 10
-302.8841988626
 20
407.6654378583
 10
-306.6076414171
 20
412.5993911435
 10
-310.6382118049
 20
417.4112145116
 10
-314.9679230037
 20
422.0913116147
 10
-319.5881770435
 20
426.6303841283
 10
-324.4897948089
 20
431.0193721463
 10
-329.6630458417
 20
435.2496329953
 10
-335.0976632419
 20
439.3127624203
 10
-340.7828660193
 20
443.2006541897
 10
-346.7073516431
 20
446.9055596997
 10
-352.8593630972
 20
450.4202071835
 10
-359.22668888
 20
453.7376228978
 10
-365.7966779056
 20
456.8511311223
 10
-372.5562991086
 20
459.7545925786
 10
-379.492119092
 20
462.4422256161
 10
-386.5903766337
 20
464.9087850262
 10
-393.836975235
 20
467.1492640187
 10
-401.2175278249
 20
469.1592518498
 10
-408.7173791113
 20
470.9347550084
 10
-416.3216428342
 20
472.472316425
 10
-424.015220392
 20
473.7687770535
 10
-431.7828362319
 20
474.8215738942
 10
-439.6090676519
 20
475.6286803891
 10
-447.478375535
 20
476.1884872128
 10
-455.3751378763
 20
476.4998618771
 10
-463.2836763258
 20
476.5621487309
 10
-471.1882892507
 20
476.3752881695
 10
-479.0732824686
 20
475.9395782162
 10
-486.9229999813
 20
475.2559725453
 10
-494.7218598309
 20
474.3257824589
 10
-502.4543741229
 20
473.1508557011
 10
-510.1051927987
 20
471.733516853
 10
-517.6591241243
 20
470.0765673329
 10
-525.1011775318
 20
468.1833450009
 10
-532.4165673438
 20
466.057545345
 10
-539.590776104
 20
463.7034598996
 10
-546.6095583025
 20
461.125737827
 10
-553.4589813533
 20
458.3295051266
 10
-560.1254404965
 20
455.3202454259
 10
-566.5957035008
 20
452.1039787938
 10
-572.8569255653
 20
448.687142532
 10
-578.896671671
 20
445.0764123608
 10
-584.7029538336
 20
441.2790600468
 10
-590.2642385545
 20
437.3025957753
 10
-595.5694989744
 20
433.1548873593
 10
-600.6081925216
 20
428.8441602399
 10
-605.370305616
 20
424.3790570904
 10
-609.8463909212
 20
419.7683397938
 10
-614.0275822464
 20
415.0211874653
 10
-617.9055349412
 20
410.1470772435
 10
-621.472589809
 20
405.1556650807
 10
-624.7216538969
 20
400.0567857434
 10
-627.6462601009
 20
394.8606912305
 10
-630.2406267705
 20
389.5775739361
 10
-632.4995683017
 20
384.2180434872
 10
-634.4186441484
 20
378.7926499058
 10
-635.994009811
 20
373.3121816327
 10
-637.2225509468
 20
367.7875463177
 10
-638.1018237653
 20
362.229651611
 10
-638.6300848308
 20
356.6496137787
 10
-638.8062910619
 20
351.0584894826
  0
LWPOLYLINE
  5
95
330
1F
100
AcDbEntity
  8
0
  6
Continuous
 62
     7
370
    25
100
AcDbPolyline
 90
      129
 70
   128
 43
0.0
 10
-606.6062973323
 20
351.0584894826
 10
-606.4312831941
 20
356.0998205353
 10
-605.9066431108
 20
361.1289922406
 10
-605.0336436811
 20
366.1339346577
 10
-603.8144008699
 20
371.1025778462
 10
-602.2518353048
 20
376.0228816678
 10
-600.3497318807
 20
380.8831040074
 10
-598.112650353
 20
385.6714431454
 10
-595.5459998432
 20
390.3763953854
 10
-592.6559345308
 20
394.9866358449
 10
-589.4494579616
 20
399.4910184552
 10
-585.9342665854
 20
403.8787547757
 10
-582.1188317123
 20
408.1392351796
 10
-578.0123473588
 20
412.262207668
 10
-573.6247153464
 20
416.2377182652
 10
-568.9664931479
 20
420.0562302281
 10
-564.0489087883
 20
423.7085048367
 10
-558.8838161412
 20
427.1857206036
 10
-553.4836427751
 20
430.4795924832
 10
-547.8614048543
 20
433.582133453
 10
-542.030654985
 20
436.4858333279
 10
-536.0054226103
 20
439.183777969
 10
-529.8002438131
 20
441.6693512608
 10
-523.4300532821
 20
443.9367119481
 10
-516.9101992133
 20
445.9802571942
 10
-510.256391156
 20
447.795159023
 10
-503.4846590343
 20
449.3770066907
 10
-496.6113158944
 20
450.7220451047
 10
-489.6529206517
 20
451.8269364049
 10
-482.6262352499
 20
452.6890579869
 10
-475.5481864768
 20
453.3063832928
 10
-468.4358296427
 20
453.6773626019
 10
-461.3062964263
 20
453.8011018445
 10
-454.17676321
 20
453.6773626019
 10
-447.0644063759
 20
453.3063832928
 10
-439.9863576028
 20
452.6890579869
 10
-432.959672201
 20
451.8269364049
 10
-426.0012769583
 20
450.7220451047
 10
-419.1279338184
 20
449.3770066907
 10
-412.3562016967
 20
447.795159023
 10
-405.7023936394
 20
445.9802571942
 10
-399.1825395706
 20
443.9367119481
 10
-392.8123490396
 20
441.6693512608
 10
-386.6071702424
 20
439.183777969
 10
-380.5819378677
 20
436.4858333279
 10
-374.7511879983
 20
433.582133453
 10
-369.1289500776
 20
430.4795924832
 10
-363.7287767115
 20
427.1857206036
 10
-358.5636840644
 20
423.7085048367
 10
-353.6460997048
 20
420.0562302281
 10
-348.9878775063
 20
416.2377182652
 10
-344.6002454939
 20
412.262207668
 10
-340.4937611404
 20
408.1392351796
 10
-336.6783262673
 20
403.8787547757
 10
-333.1631348911
 20
399.4910184552
 10
-329.9566583219
 20
394.9866358449
 10
-327.0665930095
 20
390.3763953854
 10
-324.4999424997
 20
385.6714431454
 10
-322.262860972
 20
380.8831040074
 10
-320.3607575479
 20
376.0228816678
 10
-318.7981919828
 20
371.1025778462
 10
-317.5789491716
 20
366.1339346577
 10
-316.7059497419
 20
361.1289922406
 10
-316.1813096586
 20
356.0998205353
 10
-316.0062955204
 20
351.0584894826
 10
-316.1813096586
 20
346.0171286275
 10
-316.7059497419
 20
340.9879569222
 10
-317.5789491716
 20
335.9830145051
 10
-318.7981919828
 20
331.0144011189
 10
-320.3607575479
 20
326.094067495
 10
-322.262860972
 20
321.2338749577
 10
-324.4999424997
 20
316.4455358197
 10
-327.0665930095
 20
311.7405835797
 10
-329.9566583219
 20
307.1303431203
 10
-333.1631348911
 20
302.6259605099
 10
-336.6783262673
 20
298.2382241894
 10
-340.4937611404
 20
293.9777437855
 10
-344.6002454939
 20
289.8547712971
 10
-348.9878775063
 20
285.8792606999
 10
-353.6460997048
 20
282.060748737
 10
-358.5636840644
 20
278.4084741284
 10
-363.7287767115
 20
274.9312285592
 10
-369.1289500776
 20
271.6373566796
 10
-374.7511879983
 20
268.5348455121
 10
-380.5819378677
 20
265.6311158349
 10
-386.6071702424
 20
262.9332009961
 10
-392.8123490396
 20
260.4475680997
 10
-399.1825395706
 20
258.180267017
 10
-405.7023936394
 20
256.1366919686
 10
-412.3562016967
 20
254.3217901398
 10
-419.1279338184
 20
252.7399126698
 10
-426.0012769583
 20
251.3949338605
 10
-432.959672201
 20
250.2900425603
 10
-439.9863576028
 20
249.4278911759
 10
-447.0644063759
 20
248.8105956723
 10
-454.17676321
 20
248.4396163632
 10
-461.3062964263
 20
248.3158771207
 10
-468.4358296427
 20
248.4396163632
 10
-475.5481864768
 20
248.8105956723
 10
-482.6262352499
 20
249.4278911759
 10
-489.6529206517
 20
250.2900425603
 10
-496.6113158944
 20
251.3949338605
 10
-503.4846590343
 20
252.7399126698
 10
-510.256391156
 20
254.3217901398
 10
-516.9101992133
 20
256.1366919686
 10
-523.4300532821
 20
258.180267017
 10
-529.8002438131
 20
260.4475680997
 10
-536.0054226103
 20
262.9332009961
 10
-542.030654985
 20
265.6311158349
 10
-547.8614048543
 20
268.5348455121
 10
-553.4836427751
 20
271.6373566796
 10
-558.8838161412
 20
274.9312285592
 10
-564.0489087883
 20
278.4084741284
 10
-568.9664931479
 20
282.060748737
 10
-573.6247153464
 20
285.8792606999
 10
-578.0123473588
 20
289.8547712971
 10
-582.1188317123
 20
293.9777437855
 10
-585.9342665854
 20
298.2382241894
 10
-589.4494579616
 20
302.6259605099
 10
-592.6559345308
 20
307.1303431203
 10
-595.5459998432
 20
311.7405835797
 10
-598.112650353
 20
316.4455358197
 10
-600.3497318807
 20
321.2338749577
 10
-602.2518353048
 20
326.094067495
 10
-603.8144008699
 20
331.0144011189
 10
-605.0336436811
 20
335.9830145051
 10
-605.9066431108
 20
340.9879569222
 10
-606.4312831941
 20
346.0171286275
 10
-606.6062973323
 20
351.0584894826
  0
LINE
  5
96
330
1F
100
AcDbEntity
  8
0
  6
Continuous
 62
     7
370
    25
100
AcDbLine
 10
-638.8062910619
 20
-138.9415200542
 30
0.0
 11
-283.8063017908
 21
-138.9415200542
 31
0.0
  0
LWPOLYLINE
  5
97
330
1F
100
AcDbEntity
  8
0
  6
Continuous
 62
     1
370
    25
100
AcDbPolyline
 90
       37
 70
   128
 43
0.0
 10
-461.3062964263
 20
71.5355787684
 10
-453.3992299321
 20
71.6601673772
 10
-445.5078636739
 20
72.033709686
 10
-437.6478624973
 20
72.6554457356
 10
-429.8348316434
 20
73.5241536309
 10
-422.0842869463
 20
74.6381197383
 10
-414.4116119924
 20
75.9950939824
 10
-406.8320432189
 20
77.5924239566
 10
-399.3606270733
 20
79.4269059111
 10
-392.012201387
 20
81.4949188639
 10
-384.8013506713
 20
83.7923500945
 10
-377.7423949423
 20
86.3146398474
 10
-370.8493412915
 20
89.0567664315
 10
-364.1358838859
 20
92.0133207251
 10
-357.6153518143
 20
95.1783869673
 10
-351.3006941858
 20
98.5457215716
 10
-345.2044354263
 20
102.1086041142
 10
-339.3386827293
 20
105.8599863459
 10
-333.7150888029
 20
109.7924176861
 10
-328.3448146167
 20
113.8980750252
 10
-323.2385294023
 20
118.1688372304
 10
-318.4063659492
 20
122.5961808373
 10
-313.8579057041
 20
127.1713439633
 10
-309.6021936718
 20
131.8852369
 10
-305.6476788106
 20
136.7285017182
 10
-302.0022140327
 20
141.6915420701
 10
-298.6730264011
 20
146.7644635846
 10
-295.6667320314
 20
151.9372228791
 10
-292.9893062892
 20
157.1995679547
 10
-290.646053988
 20
162.5410083939
 10
-288.6416391912
 20
167.95093457
 10
-286.9800256076
 20
173.4186474492
 10
-285.6645212951
 20
178.9332691838
 10
-284.6977339569
 20
184.4838623215
 10
-284.0815858427
 20
190.0594000031
 10
-283.8173137489
 20
195.6487957646
 10
-283.8063017908
 20
197.0470313241
  0
LWPOLYLINE
  5
98
330
1F
100
AcDbEntity
  8
0
  6
Continuous
 62
     1
370
    25
100
AcDbPolyline
 90
       37
 70
   128
 43
0.0
 10
-638.8062910619
 20
197.0470313241
 10
-638.7952791038
 20
195.6487957646
 10
-638.53100701
 20
190.0594000031
 10
-637.9148588958
 20
184.4838623215
 10
-636.9480715576
 20
178.9332691838
 10
-635.6325672451
 20
173.4186474492
 10
-633.9709536615
 20
167.95093457
 10
-631.9665388647
 20
162.5410083939
 10
-629.6232865634
 20
157.1995679547
 10
-626.9458608213
 20
151.9372228791
 10
-623.9395664516
 20
146.7644635846
 10
-620.61037882
 20
141.6915420701
 10
-616.964914042
 20
136.7285017182
 10
-613.0103991809
 20
131.8852369
 10
-608.7546871486
 20
127.1713439633
 10
-604.2062269035
 20
122.5961808373
 10
-599.3740634504
 20
118.1688372304
 10
-594.267778236
 20
113.8980750252
 10
-588.8975040498
 20
109.7924176861
 10
-583.2739101234
 20
105.8599863459
 10
-577.4081574264
 20
102.1086041142
 10
-571.3118986669
 20
98.5457215716
 10
-564.9972410384
 20
95.1783869673
 10
-558.4767089668
 20
92.0133207251
 10
-551.7632515612
 20
89.0567664315
 10
-544.8701979104
 20
86.3146398474
 10
-537.8112421813
 20
83.7923500945
 10
-530.6003914657
 20
81.4949188639
 10
-523.2519657794
 20
79.4269059111
 10
-515.7805496338
 20
77.5924239566
 10
-508.2009808603
 20
75.9950939824
 10
-500.5283059063
 20
74.6381197383
 10
-492.7777612093
 20
73.5241536309
 10
-484.9647303554
 20
72.6554457356
 10
-477.1047291788
 20
72.033709686
 10
-469.2133629206
 20
71.6601673772
 10
-461.3062964263
 20
71.5355787684
  0
LWPOLYLINE
  5
99
330
1F
100
AcDbEntity
  8
0
  6
Continuous
 62
     1
370
    25
100
AcDbPolyline
 90
       31
 70
   128
 43
0.0
 10
-557.49531104
 20
274.0527455022
 10
-553.4836427751
 20
276.4681343247
 10
-547.8614048543
 20
279.5706752946
 10
-542.030654985
 20
282.4743751694
 10
-536.0054226103
 20
285.1723198105
 10
-529.8002438131
 20
287.6579229046
 10
-523.4300532821
 20
289.9252537896
 10
-516.9101992133
 20
291.968828838
 10
-510.256391156
 20
293.7837306668
 10
-503.4846590343
 20
295.3655783345
 10
-496.6113158944
 20
296.7105869462
 10
-489.6529206517
 20
297.8154782464
 10
-482.6262352499
 20
298.6775998284
 10
-475.5481864768
 20
299.294895332
 10
-468.4358296427
 20
299.6658746411
 10
-461.3062964263
 20
299.789643686
 10
-454.17676321
 20
299.6658746411
 10
-447.0644063759
 20
299.294895332
 10
-439.9863576028
 20
298.6775998284
 10
-432.959672201
 20
297.8154782464
 10
-426.0012769583
 20
296.7105869462
 10
-419.1279338184
 20
295.3655783345
 10
-412.3562016967
 20
293.7837306668
 10
-405.7023936394
 20
291.968828838
 10
-399.1825395706
 20
289.9252537896
 10
-392.8123490396
 20
287.6579229046
 10
-386.6071702424
 20
285.1723198105
 10
-380.5819378677
 20
282.4743751694
 10
-374.7511879983
 20
279.5706752946
 10
-369.1289500776
 20
276.4681343247
 10
-365.1172818127
 20
274.0527455022
  0
LINE
  5
9A
330
1F
100
AcDbEntity
  8
0
  6
Continuous
 62
     1
370
    25
100
AcDbLine
 10
-461.3062964263
 20
71.5355787684
 30
0.0
 11
-283.8063017908
 21
71.5355787684
 31
0.0
  0
LINE
  5
9B
330
1F
100
AcDbEntity
  8
0
  6
Continuous
 62
     1
370
    25
100
AcDbLine
 10
-638.8062910619
 20
71.5355787684
 30
0.0
 11
-461.3062964263
 21
71.5355787684
 31
0.0
  0
LINE
  5
9C
330
1F
100
AcDbEntity
  8
0
  6
Continuous
 62
     7
370
    25
100
AcDbLine
 10
628.1961894906
 20
71.5355787684
 30
0.0
 11
628.1961894906
 21
-138.9415200542
 31
0.0
  0
LINE
  5
9D
330
1F
100
AcDbEntity
  8
0
  6
Continuous
 62
     7
370
    25
100
AcDbLine
 10
983.1961787618
 20
-138.9415200542
 30
0.0
 11
983.1961787618
 21
71.5355787684
 31
0.0
  0
LINE
  5
9E
330
1F
100
AcDbEntity
  8
0
  6
Continuous
 62
     7
370
    25
100
AcDbLine
 10
983.1961787618
 20
71.5355787684
 30
0.0
 11
983.1961787618
 21
197.0470313241
 31
0.0
  0
LINE
  5
9F
330
1F
100
AcDbEntity
  8
0
  6
Continuous
 62
     7
370
    25
100
AcDbLine
 10
628.1961894906
 20
197.0470313241
 30
0.0
 11
628.1961894906
 21
71.5355787684
 31
0.0
  0
LINE
  5
A0
330
1F
100
AcDbEntity
  8
0
  6
Continuous
 62
     7
370
    25
100
AcDbLine
 10
628.1961894906
 20
351.0584894826
 30
0.0
 11
628.1961894906
 21
197.0470313241
 31
0.0
  0
LINE
  5
A1
330
1F
100
AcDbEntity
  8
0
  6
Continuous
 62
     7
370
    25
100
AcDbLine
 10
983.1961787618
 20
197.0470313241
 30
0.0
 11
983.1961787618
 21
351.0584894826
 31
0.0
  0
LINE
  5
A2
330
1F
100
AcDbEntity
  8
0
  6
Continuous
 62
     7
370
    25
100
AcDbLine
 10
628.1961894906
 20
-138.9415200542
 30
0.0
 11
983.1961787618
 21
-138.9415200542
 31
0.0
  0
LWPOLYLINE
  5
A3
330
1F
100
AcDbEntity
  8
0
  6
Continuous
 62
     7
370
    25
100
AcDbPolyline
 90
       72
 70
   128
 43
0.0
 10
628.1961894906
 20
351.0584894826
 10
628.2402373231
 20
353.8547519852
 10
628.5925603784
 20
359.4417337586
 10
629.2965061344
 20
365.0120560338
 10
630.3506738819
 20
370.5546919514
 10
631.7529774583
 20
376.05858485
 10
633.5006303466
 20
381.5128866841
 10
635.5901605762
 20
386.9066898038
 10
638.0174256242
 20
392.2293845822
 10
640.7775826133
 20
397.4702421834
 10
643.8651926196
 20
402.6190106084
 10
647.2740865625
 20
407.6654378583
 10
650.997529117
 20
412.5993911435
 10
655.0280995048
 20
417.4112145116
 10
659.3578107036
 20
422.0913116147
 10
663.9780647434
 20
426.6303841283
 10
668.8796825088
 20
431.0193721463
 10
674.0529335416
 20
435.2496329953
 10
679.4875509418
 20
439.3127624203
 10
685.1727537192
 20
443.2006541897
 10
691.097239343
 20
446.9055596997
 10
697.2492507971
 20
450.4202071835
 10
703.6165765799
 20
453.7376228978
 10
710.1865656055
 20
456.8511311223
 10
716.9461868084
 20
459.7545925786
 10
723.8820067919
 20
462.4422256161
 10
730.9802643336
 20
464.9087850262
 10
738.2268629349
 20
467.1492640187
 10
745.6074155248
 20
469.1592518498
 10
753.1072668112
 20
470.9347550084
 10
760.7115305341
 20
472.472316425
 10
768.4051080919
 20
473.7687770535
 10
776.1727239318
 20
474.8215738942
 10
783.9989553518
 20
475.6286803891
 10
791.8682632349
 20
476.1884872128
 10
799.7650255761
 20
476.4998618771
 10
807.6735640257
 20
476.5621487309
 10
815.5781769506
 20
476.3752881695
 10
823.4631701685
 20
475.9395782162
 10
831.3128876812
 20
475.2559725453
 10
839.1117475308
 20
474.3257824589
 10
846.8442618228
 20
473.1508557011
 10
854.4950804985
 20
471.733516853
 10
862.0490118242
 20
470.0765673329
 10
869.4910652316
 20
468.1833450009
 10
876.8064550436
 20
466.057545345
 10
883.9806638039
 20
463.7034598996
 10
890.9994460023
 20
461.125737827
 10
897.8488690532
 20
458.3295051266
 10
904.5153281964
 20
455.3202454259
 10
910.9855912007
 20
452.1039787938
 10
917.2468132652
 20
448.687142532
 10
923.2865593708
 20
445.0764123608
 10
929.0928415335
 20
441.2790600468
 10
934.6541262544
 20
437.3025957753
 10
939.9593866743
 20
433.1548873593
 10
944.9980802215
 20
428.8441602399
 10
949.7601933158
 20
424.3790570904
 10
954.236278621
 20
419.7683397938
 10
958.4174699462
 20
415.0211874653
 10
962.2954226411
 20
410.1470772435
 10
965.8624775089
 20
405.1556650807
 10
969.1115415967
 20
400.0567857434
 10
972.0361478008
 20
394.8606912305
 10
974.6305144704
 20
389.5775739361
 10
976.8894560016
 20
384.2180434872
 10
978.8085318483
 20
378.7926499058
 10
980.3838975109
 20
373.3121816327
 10
981.6124386466
 20
367.7875463177
 10
982.4917114652
 20
362.229651611
 10
983.0199725307
 20
356.6496137787
 10
983.1961787618
 20
351.0584894826
  0
LINE
  5
A4
330
1F
100
AcDbEntity
  8
0
  6
Continuous
 62
     1
370
    25
100
AcDbLine
 10
628.1961894906
 20
71.5355787684
 30
0.0
 11
983.1961787618
 21
71.5355787684
 31
0.0
  0
LWPOLYLINE
  5
A5
330
1F
100
AcDbEntity
  8
0
  6
Continuous
 62
     1
370
    25
100
AcDbPolyline
 90
       72
 70
   128
 43
0.0
 10
628.1961894906
 20
197.0470313241
 10
628.2953120149
 20
201.2409929444
 10
628.735626427
 20
206.8248454739
 10
629.5272804178
 20
212.3892966916
 10
630.6687093652
 20
217.9232601334
 10
632.1576482929
 20
223.4157983472
 10
633.9911169685
 20
228.8559738804
 10
636.1654944099
 20
234.2329982926
 10
638.6764592803
 20
239.5362023522
 10
641.5190196908
 20
244.7550360371
 10
644.6875430025
 20
249.8791579415
 10
648.1757409252
 20
254.8983756711
 10
651.9766695178
 20
259.8027650525
 10
656.0828036941
 20
264.5825211217
 10
660.4859776176
 20
269.2281965424
 10
665.1774592079
 20
273.7305823971
 10
670.147920338
 20
278.0807081868
 10
675.3874964393
 20
282.2699610402
 10
680.8858014024
 20
286.2899963071
 10
686.631897775
 20
290.1328567673
 10
692.6143787182
 20
293.7909130265
 10
698.8213829077
 20
297.2568635155
 10
705.240572182
 20
300.5238835026
 10
711.8592134989
 20
303.5854462792
 10
718.6641491331
 20
306.4355019738
 10
725.641886083
 20
309.0683583428
 10
732.7785662688
 20
311.4788297822
 10
740.0600112356
 20
313.6620883156
 10
747.4717705823
 20
315.6138126065
 10
754.9991331376
 20
317.3301581551
 10
762.6271455861
 20
318.8076678921
 10
770.3406720735
 20
320.0434509923
 10
778.1243904806
 20
321.0350338627
 10
785.9628520287
 20
321.780419748
 10
793.8404915235
 20
322.2782079388
 10
801.7416697308
 20
322.5273255517
 10
809.6506985217
 20
322.5273255517
 10
817.5518767289
 20
322.2782079388
 10
825.4295162238
 20
321.780419748
 10
833.2679777718
 20
321.0350338627
 10
841.051696179
 20
320.0434509923
 10
848.7652226664
 20
318.8076678921
 10
856.3932351149
 20
317.3301581551
 10
863.9205976702
 20
315.6138126065
 10
871.3323570169
 20
313.6620883156
 10
878.6138019837
 20
311.4788297822
 10
885.7504821695
 20
309.0683583428
 10
892.7282191194
 20
306.4355019738
 10
899.5331547535
 20
303.5854462792
 10
906.1517960704
 20
300.5238835026
 10
912.5709853447
 20
297.2568635155
 10
918.7779895342
 20
293.7909130265
 10
924.7604704774
 20
290.1328567673
 10
930.50656685
 20
286.2899963071
 10
936.0048718131
 20
282.2699610402
 10
941.2444479144
 20
278.0807081868
 10
946.2149090446
 20
273.7305823971
 10
950.9063906349
 20
269.2281965424
 10
955.3095645584
 20
264.5825211217
 10
959.4156987346
 20
259.8027650525
 10
963.2166273273
 20
254.8983756711
 10
966.70482525
 20
249.8791579415
 10
969.8733485616
 20
244.7550360371
 10
972.7159089721
 20
239.5362023522
 10
975.2268738426
 20
234.2329982926
 10
977.401251284
 20
228.8559738804
 10
979.2347199596
 20
223.4157983472
 10
980.7236588872
 20
217.9232601334
 10
981.8650878347
 20
212.3892966916
 10
982.6567418254
 20
206.8248454739
 10
983.0970562375
 20
201.2409929444
 10
983.1961787618
 20
197.0470313241
  0
LINE
  5
A6
330
1F
100
AcDbEntity
  8
0
  6
Continuous
 62
     7
370
    25
100
AcDbLine
 10
342.0835908576
 20
975.0806210969
 30
0.0
 11
188.0721364244
 21
975.0806210969
 31
0.0
  0
LINE
  5
A7
330
1F
100
AcDbEntity
  8
0
  6
Continuous
 62
     7
370
    25
100
AcDbLine
 10
188.0721364244
 20
620.0806318258
 30
0.0
 11
342.0835908576
 21
620.0806318258
 31
0.0
  0
LINE
  5
A8
330
1F
100
AcDbEntity
  8
0
  6
Continuous
 62
     7
370
    25
100
AcDbLine
 10
188.0721364244
 20
975.0806210969
 30
0.0
 11
136.0835906191
 21
975.0806210969
 31
0.0
  0
LINE
  5
A9
330
1F
100
AcDbEntity
  8
0
  6
Continuous
 62
     7
370
    25
100
AcDbLine
 10
136.0835906191
 20
620.0806318258
 30
0.0
 11
188.0721364244
 21
620.0806318258
 31
0.0
  0
CIRCLE
  5
AA
330
1F
100
AcDbEntity
  8
0
  6
Continuous
 62
     7
370
    25
100
AcDbCircle
 10
136.0835906191
 20
797.5806264614
 30
0.0
 40
145.3000000000001
  0
CIRCLE
  5
AB
330
1F
100
AcDbEntity
  8
0
  6
Continuous
 62
     7
370
    25
100
AcDbCircle
 10
136.0835906191
 20
797.5806264614
 30
0.0
 40
177.5
  0
LWPOLYLINE
  5
AC
330
1F
100
AcDbEntity
  8
0
  6
Continuous
 62
     7
370
    25
100
AcDbPolyline
 90
       72
 70
   128
 43
0.0
 10
342.0835908576
 20
975.0806210969
 10
347.6747300549
 20
974.9044148658
 10
353.2547678872
 20
974.3761538003
 10
358.8126327916
 20
973.4968809818
 10
364.3372830077
 20
972.268339846
 10
369.8177363797
 20
970.6929741834
 10
375.2431448622
 20
968.7738983367
 10
380.6027051135
 20
966.5149568056
 10
385.8857926055
 20
963.9205901359
 10
391.0819169207
 20
960.9959839319
 10
396.1807664557
 20
957.746919844
 10
401.1722084208
 20
954.1798649763
 10
406.0463186427
 20
950.3019122814
 10
410.7934411688
 20
946.1207209562
 10
415.4041584654
 20
941.644635651
 10
419.8692914172
 20
936.8825225566
 10
424.1800185366
 20
931.8438290094
 10
428.3277269526
 20
926.5385685895
 10
432.3041912242
 20
920.9772838686
 10
436.1015435382
 20
915.171001706
 10
439.712243907
 20
909.1312556003
 10
443.1291099711
 20
902.8700335358
 10
446.3453468009
 20
896.3997705315
 10
449.3545766993
 20
889.7333113883
 10
452.150839202
 20
882.8838883375
 10
454.7285910769
 20
875.865106139
 10
457.0826765223
 20
868.6908973788
 10
459.2084463759
 20
861.3755075668
 10
461.1016687079
 20
853.9334541593
 10
462.758618228
 20
846.3795228337
 10
464.1759570761
 20
838.7287041579
 10
465.3508838339
 20
830.9961898659
 10
466.2810739203
 20
823.1973300163
 10
466.9647093936
 20
815.3476125036
 10
467.4003895445
 20
807.4626192857
 10
467.5872501059
 20
799.5580063608
 10
467.5249632521
 20
791.6494679113
 10
467.2135885878
 20
783.75270557
 10
466.6538115664
 20
775.8833976869
 10
465.8467050715
 20
768.0571662669
 10
464.7938784285
 20
760.289550427
 10
463.4974178
 20
752.5959728692
 10
461.9598861857
 20
744.9917091463
 10
460.1843830271
 20
737.4918578599
 10
458.1743653937
 20
730.11130527
 10
455.9338864012
 20
722.8647066687
 10
453.4673567935
 20
715.766449127
 10
450.7796939536
 20
708.8306291436
 10
447.8762324973
 20
702.0710079406
 10
444.7627242728
 20
695.501018915
 10
441.4453383608
 20
689.1336931322
 10
437.930690877
 20
682.9816816781
 10
434.2257555647
 20
677.0571960543
 10
430.3378637953
 20
671.3719932769
 10
426.2747641726
 20
665.9373758768
 10
422.0445033236
 20
660.7641248439
 10
417.6554855033
 20
655.8625070785
 10
413.116442792
 20
651.2422530387
 10
408.4363456889
 20
646.9125418399
 10
403.6245223208
 20
642.8819714521
 10
398.6905392333
 20
639.1585288976
 10
393.6441417857
 20
635.7496349548
 10
388.4953733607
 20
632.6620249484
 10
383.254471056
 20
629.9018679593
 10
377.9318209811
 20
627.4746029113
 10
372.5380029603
 20
625.3850726818
 10
367.0837160273
 20
623.6374197935
 10
361.5797933264
 20
622.235116217
 10
356.0371574088
 20
621.1809484695
 10
350.4668351336
 20
620.4770027135
 10
344.8798533602
 20
620.1246796583
 10
342.0835908576
 20
620.0806318258
  0
LWPOLYLINE
  5
AD
330
1F
100
AcDbEntity
  8
0
  6
Continuous
 62
     7
370
    25
100
AcDbPolyline
 90
       27
 70
   128
 43
0.0
 10
256.7555930539
 20
878.5149051283
 10
256.6562246605
 20
878.30498502
 10
253.9583098217
 20
872.2797526453
 10
251.4726918264
 20
866.0745738481
 10
249.205368392
 20
859.7043833171
 10
247.1617933436
 20
853.1845292483
 10
245.3468915148
 20
846.530721191
 10
243.7650363966
 20
839.7589890693
 10
242.420042686
 20
832.8856459294
 10
241.3151439353
 20
825.9272506867
 10
240.4530074521
 20
818.9005652849
 10
239.8357119485
 20
811.8225165118
 10
239.4647326394
 20
804.7101596777
 10
239.3409784957
 20
797.5806264614
 10
239.4647326394
 20
790.451093245
 10
239.8357119485
 20
783.3387364109
 10
240.4530074521
 20
776.2606876378
 10
241.3151439353
 20
769.234002236
 10
242.420042686
 20
762.2756069933
 10
243.7650363966
 20
755.4022638534
 10
245.3468915148
 20
748.6305317317
 10
247.1617933436
 20
741.9767236744
 10
249.205368392
 20
735.4568696056
 10
251.4726918264
 20
729.0866790746
 10
253.9583098217
 20
722.8815002774
 10
256.6562246605
 20
716.8562679027
 10
256.7555930539
 20
716.6463477944
  0
LWPOLYLINE
  5
AE
330
1F
100
AcDbEntity
  8
0
  6
Continuous
 62
     1
370
    25
100
AcDbPolyline
 90
       37
 70
   128
 43
0.0
 10
313.5835852547
 20
797.5806264614
 10
313.458996646
 20
789.6735599671
 10
313.0854543372
 20
781.7821937089
 10
312.4637182875
 20
773.9221925323
 10
311.5950103922
 20
766.1091616784
 10
310.4810442849
 20
758.3586169814
 10
309.1240700408
 20
750.6859420274
 10
307.5267400666
 20
743.1063732539
 10
305.692258112
 20
735.6349571083
 10
303.6242451592
 20
728.286531422
 10
301.3268139287
 20
721.0756807063
 10
298.8045241757
 20
714.0167249773
 10
296.0623826905
 20
707.1236713265
 10
293.105843298
 20
700.4102139209
 10
289.9407770558
 20
693.8896818493
 10
286.5734424515
 20
687.5750242208
 10
283.0105599089
 20
681.4787654613
 10
279.2591776772
 20
675.6130127643
 10
275.326746337
 20
669.9894188379
 10
271.2210889979
 20
664.6191446517
 10
266.9503416939
 20
659.5128594373
 10
262.5229831858
 20
654.6806959842
 10
257.9478200598
 20
650.1322357391
 10
253.2339196725
 20
645.8765237068
 10
248.3906548544
 20
641.9220088457
 10
243.4276219531
 20
638.2765440677
 10
238.354692988
 20
634.9473564361
 10
233.1819262429
 20
631.9410620664
 10
227.919603519
 20
629.2636363243
 10
222.5781705304
 20
626.920384023
 10
217.1682220026
 20
624.9159692262
 10
211.7005091234
 20
623.2543556426
 10
206.1858799382
 20
621.9388513301
 10
200.635294251
 20
620.9720639919
 10
195.0597602947
 20
620.3559158777
 10
189.4703570827
 20
620.0916437839
 10
188.0721364244
 20
620.0806318258
  0
LWPOLYLINE
  5
AF
330
1F
100
AcDbEntity
  8
0
  6
Continuous
 62
     1
370
    25
100
AcDbPolyline
 90
       37
 70
   128
 43
0.0
 10
188.0721364244
 20
975.0806210969
 10
189.4703570827
 20
975.0696091388
 10
195.0597602947
 20
974.805337045
 10
200.635294251
 20
974.1891889308
 10
206.1858799382
 20
973.2224015926
 10
211.7005091234
 20
971.9068972801
 10
217.1682220026
 20
970.2452836965
 10
222.5781705304
 20
968.2408688997
 10
227.919603519
 20
965.8976165985
 10
233.1819262429
 20
963.2201908563
 10
238.354692988
 20
960.2138964866
 10
243.4276219531
 20
956.884708855
 10
248.3906548544
 20
953.2392440771
 10
253.2339196725
 20
949.2847292159
 10
257.9478200598
 20
945.0290171836
 10
262.5229831858
 20
940.4805569385
 10
266.9503416939
 20
935.6483934854
 10
271.2210889979
 20
930.542108271
 10
275.326746337
 20
925.1718340848
 10
279.2591776772
 20
919.5482401584
 10
283.0105599089
 20
913.6824874614
 10
286.5734424515
 20
907.5862287019
 10
289.9407770558
 20
901.2715710734
 10
293.105843298
 20
894.7510390018
 10
296.0623826905
 20
888.0375815962
 10
298.8045241757
 20
881.1445279454
 10
301.3268139287
 20
874.0855722164
 10
303.6242451592
 20
866.8747215007
 10
305.692258112
 20
859.5262958144
 10
307.5267400666
 20
852.0548796688
 10
309.1240700408
 20
844.4753108953
 10
310.4810442849
 20
836.8026359414
 10
311.5950103922
 20
829.0520912443
 10
312.4637182875
 20
821.2390603904
 10
313.0854543372
 20
813.3790592138
 10
313.458996646
 20
805.4876929556
 10
313.5835852547
 20
797.5806264614
  0
LWPOLYLINE
  5
B0
330
1F
100
AcDbEntity
  8
0
  6
Continuous
 62
     1
370
    25
100
AcDbPolyline
 90
       57
 70
   128
 43
0.0
 10
166.5377754791
 20
939.6532593702
 10
163.1077181621
 20
938.5261653398
 10
158.2475293501
 20
936.6240619157
 10
153.4591920747
 20
934.386980388
 10
148.7542398347
 20
931.8203298782
 10
144.1440086885
 20
928.9302645658
 10
139.6396032608
 20
925.7237879966
 10
135.2518764863
 20
922.2085966204
 10
130.9913981779
 20
918.3931617473
 10
126.8684322088
 20
914.2866773938
 10
122.892911367
 20
909.8990453814
 10
119.0744143053
 20
905.2408231829
 10
115.422137834
 20
900.3232388233
 10
111.9448810889
 20
895.1581461762
 10
108.6510222478
 20
889.7579728101
 10
105.5484943165
 20
884.1357348894
 10
102.6447739525
 20
878.30498502
 10
99.9468553885
 20
872.2797526453
 10
97.4612411185
 20
866.0745738481
 10
95.1939139588
 20
859.7043833171
 10
93.1503389104
 20
853.1845292483
 10
91.3354370816
 20
846.530721191
 10
89.7535856886
 20
839.7589890693
 10
88.4085882528
 20
832.8856459294
 10
87.3036932273
 20
825.9272506867
 10
86.4415567442
 20
818.9005652849
 10
85.82425379
 20
811.8225165118
 10
85.4532782062
 20
804.7101596777
 10
85.3295203372
 20
797.5806264614
 10
85.4532782062
 20
790.451093245
 10
85.82425379
 20
783.3387364109
 10
86.4415567442
 20
776.2606876378
 10
87.3036932273
 20
769.234002236
 10
88.4085882528
 20
762.2756069933
 10
89.7535856886
 20
755.4022638534
 10
91.3354370816
 20
748.6305317317
 10
93.1503389104
 20
741.9767236744
 10
95.1939139588
 20
735.4568696056
 10
97.4612411185
 20
729.0866790746
 10
99.9468553885
 20
722.8815002774
 10
102.6447739525
 20
716.8562679027
 10
105.5484943165
 20
711.0255180334
 10
108.6510222478
 20
705.4032801126
 10
111.9448810889
 20
700.0031067465
 10
115.422137834
 20
694.8380140994
 10
119.0744143053
 20
689.9204297398
 10
122.892911367
 20
685.2622075413
 10
126.8684322088
 20
680.8745755289
 10
130.9913981779
 20
676.7680911754
 10
135.2518764863
 20
672.9526563023
 10
139.6396032608
 20
669.4374649261
 10
144.1440086885
 20
666.2309883569
 10
148.7542398347
 20
663.3409230445
 10
153.4591920747
 20
660.7742725347
 10
158.2475293501
 20
658.537191007
 10
163.1077181621
 20
656.6350875829
 10
166.5377754791
 20
655.5079935525
  0
INSERT
  5
BC
330
1F
100
AcDbEntity
  8
FORMAT
 62
     7
100
AcDbBlockReference
  2
SW_CENTERMARKSYMBOL_0
 10
136.0835906191
 20
797.5806264614
 30
0.0
  0
LINE
  5
BD
330
1F
100
AcDbEntity
  8
0
  6
Continuous
 62
     7
370
    25
100
AcDbLine
 10
342.0835908576
 20
-415.6473113393
 30
0.0
 11
188.0721364244
 21
-415.6473113393
 31
0.0
  0
LINE
  5
BE
330
1F
100
AcDbEntity
  8
0
  6
Continuous
 62
     7
370
    25
100
AcDbLine
 10
188.0721364244
 20
-770.6473006105
 30
0.0
 11
342.0835908576
 21
-770.6473006105
 31
0.0
  0
LINE
  5
BF
330
1F
100
AcDbEntity
  8
0
  6
Continuous
 62
     7
370
    25
100
AcDbLine
 10
136.0835906191
 20
-770.6473006105
 30
0.0
 11
188.0721364244
 21
-770.6473006105
 31
0.0
  0
LINE
  5
C0
330
1F
100
AcDbEntity
  8
0
  6
Continuous
 62
     7
370
    25
100
AcDbLine
 10
188.0721364244
 20
-415.6473113393
 30
0.0
 11
136.0835906191
 21
-415.6473113393
 31
0.0
  0
LWPOLYLINE
  5
C1
330
1F
100
AcDbEntity
  8
0
  6
Continuous
 62
     7
370
    25
100
AcDbPolyline
 90
      142
 70
   128
 43
0.0
 10
342.0835908576
 20
-770.6473006105
 10
347.6747300549
 20
-770.4710943794
 10
353.2547678872
 20
-769.9428333139
 10
358.8126327916
 20
-769.0635604953
 10
364.3372830077
 20
-767.8350193595
 10
369.8177363797
 20
-766.259653697
 10
375.2431448622
 20
-764.3405778503
 10
380.6027051135
 20
-762.0816363191
 10
385.8857926055
 20
-759.4872696495
 10
391.0819169207
 20
-756.5626634454
 10
396.1807664557
 20
-753.3135993576
 10
401.1722084208
 20
-749.7465444898
 10
406.0463186427
 20
-745.8685917949
 10
410.7934411688
 20
-741.6874004697
 10
415.4041584654
 20
-737.2113151645
 10
419.8692914172
 20
-732.4492020702
 10
424.1800185366
 20
-727.4105085229
 10
428.3277269526
 20
-722.1052481031
 10
432.3041912242
 20
-716.5439633822
 10
436.1015435382
 20
-710.7376812195
 10
439.712243907
 20
-704.6979351139
 10
443.1291099711
 20
-698.4367130494
 10
446.3453468009
 20
-691.9664500451
 10
449.3545766993
 20
-685.2999909019
 10
452.150839202
 20
-678.450567851
 10
454.7285910769
 20
-671.4317856526
 10
457.0826765223
 20
-664.2575768923
 10
459.2084463759
 20
-656.9421870803
 10
461.1016687079
 20
-649.5001336729
 10
462.758618228
 20
-641.9462023472
 10
464.1759570761
 20
-634.2953836715
 10
465.3508838339
 20
-626.5628693795
 10
466.2810739203
 20
-618.7640095299
 10
466.9647093936
 20
-610.9142920172
 10
467.4003895445
 20
-603.0292987993
 10
467.5872501059
 20
-595.1246858744
 10
467.5249632521
 20
-587.2161474248
 10
467.2135885878
 20
-579.3193850836
 10
466.6538115664
 20
-571.4500772005
 10
465.8467050715
 20
-563.6238457804
 10
464.7938784285
 20
-555.8562299406
 10
463.4974178
 20
-548.1626523828
 10
461.9598861857
 20
-540.5583886599
 10
460.1843830271
 20
-533.0585373735
 10
458.1743653937
 20
-525.6779847836
 10
455.9338864012
 20
-518.4313861823
 10
453.4673567935
 20
-511.3331286406
 10
450.7796939536
 20
-504.3973086571
 10
447.8762324973
 20
-497.6376874542
 10
444.7627242728
 20
-491.0676984286
 10
441.4453383608
 20
-484.7003726458
 10
437.930690877
 20
-478.5483611917
 10
434.2257555647
 20
-472.6238755679
 10
430.3378637953
 20
-466.9386727905
 10
426.2747641726
 20
-461.5040553903
 10
422.0445033236
 20
-456.3308043575
 10
417.6554855033
 20
-451.4291865921
 10
413.116442792
 20
-446.8089325523
 10
408.4363456889
 20
-442.4792213535
 10
403.6245223208
 20
-438.4486509656
 10
398.6905392333
 20
-434.7252084112
 10
393.6441417857
 20
-431.3163144683
 10
388.4953733607
 20
-428.228704462
 10
383.254471056
 20
-425.4685474729
 10
377.9318209811
 20
-423.0412824249
 10
372.5380029603
 20
-420.9517521953
 10
367.0837160273
 20
-419.204099307
 10
361.5797933264
 20
-417.8017957305
 10
356.0371574088
 20
-416.747627983
 10
350.4668351336
 20
-416.0436822271
 10
344.8798533602
 20
-415.6913591718
 10
339.2873283549
 20
-415.6913591718
 10
333.7003465815
 20
-416.0436822271
 10
328.1300243064
 20
-416.747627983
 10
322.5873883887
 20
-417.8017957305
 10
317.0834656878
 20
-419.204099307
 10
311.6291787549
 20
-420.9517521953
 10
306.235360734
 20
-423.0412824249
 10
300.9127106591
 20
-425.4685474729
 10
295.6718083544
 20
-428.228704462
 10
290.5230399294
 20
-431.3163144683
 10
285.476657383
 20
-434.7252084112
 10
280.5426444932
 20
-438.4486509656
 10
275.7308360262
 20
-442.4792213535
 10
271.0507538243
 20
-446.8089325523
 10
266.5116962119
 20
-451.4291865921
 10
262.1226783915
 20
-456.3308043575
 10
257.8924249931
 20
-461.5040553903
 10
253.8293179198
 20
-466.9386727905
 10
249.941433601
 20
-472.6238755679
 10
246.2364908381
 20
-478.5483611917
 10
242.7218433543
 20
-484.7003726458
 10
239.4044723435
 20
-491.0676984286
 10
236.2909566684
 20
-497.6376874542
 10
233.387480311
 20
-504.3973086571
 10
230.6998174711
 20
-511.3331286406
 10
228.2332878633
 20
-518.4313861823
 10
225.9928088709
 20
-525.6779847836
 10
223.9828061386
 20
-533.0585373735
 10
222.2072880788
 20
-540.5583886599
 10
220.6697713657
 20
-548.1626523828
 10
219.3733107372
 20
-555.8562299406
 10
218.3204766436
 20
-563.6238457804
 10
217.5133701487
 20
-571.4500772005
 10
216.9535782261
 20
-579.3193850836
 10
216.6422259136
 20
-587.2161474248
 10
216.5799241586
 20
-595.1246858744
 10
216.7667996212
 20
-603.0292987993
 10
217.2024797721
 20
-610.9142920172
 10
217.8861003442
 20
-618.7640095299
 10
218.8162978812
 20
-626.5628693795
 10
219.9912395402
 20
-634.2953836715
 10
221.4085783883
 20
-641.9462023472
 10
223.0655055566
 20
-649.5001336729
 10
224.9587353392
 20
-656.9421870803
 10
227.0845051928
 20
-664.2575768923
 10
229.4385980888
 20
-671.4317856526
 10
232.016327612
 20
-678.450567851
 10
234.8125975652
 20
-685.2999909019
 10
237.8218349143
 20
-691.9664500451
 10
241.0380791946
 20
-698.4367130494
 10
244.4549378081
 20
-704.6979351139
 10
248.0656307264
 20
-710.7376812195
 10
251.8629830404
 20
-716.5439633822
 10
255.8394622131
 20
-722.1052481031
 10
259.9871780797
 20
-727.4105085229
 10
264.2978753968
 20
-732.4492020702
 10
268.7630232497
 20
-737.2113151645
 10
273.3737405463
 20
-741.6874004697
 10
278.1208630725
 20
-745.8685917949
 10
282.9949881955
 20
-749.7465444898
 10
287.9864301606
 20
-753.3135993576
 10
293.0852647944
 20
-756.5626634454
 10
298.2813891097
 20
-759.4872696495
 10
303.5644766017
 20
-762.0816363191
 10
308.9240368529
 20
-764.3405778503
 10
314.3494453354
 20
-766.259653697
 10
319.8298987074
 20
-767.8350193595
 10
325.3545489236
 20
-769.0635604953
 10
330.912413828
 20
-769.9428333139
 10
336.4924516602
 20
-770.4710943794
 10
342.0835908576
 20
-770.6473006105
  0
LWPOLYLINE
  5
C2
330
1F
100
AcDbEntity
  8
0
  6
Continuous
 62
     7
370
    25
100
AcDbPolyline
 90
      129
 70
   128
 43
0.0
 10
342.0835908576
 20
-738.4473068809
 10
337.0422449036
 20
-738.2722927427
 10
332.0130582972
 20
-737.7476526594
 10
327.0081158801
 20
-736.8746532297
 10
322.0395024939
 20
-735.6554104185
 10
317.11916887
 20
-734.0928448534
 10
312.2589763327
 20
-732.1907414293
 10
307.4706520959
 20
-729.9536599016
 10
302.7656998559
 20
-727.3870093917
 10
298.1554593964
 20
-724.4969440794
 10
293.6510618849
 20
-721.2904675102
 10
289.2633255644
 20
-717.775276134
 10
285.0028451605
 20
-713.9598412609
 10
280.8798875733
 20
-709.8533569073
 10
276.9043620749
 20
-705.465724895
 10
273.0858650132
 20
-700.8075026965
 10
269.4335904046
 20
-695.8899183368
 10
265.9563299342
 20
-690.7248256897
 10
262.6624729558
 20
-685.3246523237
 10
259.5599468871
 20
-679.7024144029
 10
256.6562246605
 20
-673.8716645336
 10
253.9583098217
 20
-667.8464321589
 10
251.4726918264
 20
-661.6412533617
 10
249.205368392
 20
-655.2710628306
 10
247.1617933436
 20
-648.7512087619
 10
245.3468915148
 20
-642.0974007046
 10
243.7650363966
 20
-635.3256685829
 10
242.420042686
 20
-628.452325443
 10
241.3151439353
 20
-621.4939302003
 10
240.4530074521
 20
-614.4672447985
 10
239.8357119485
 20
-607.3891960254
 10
239.4647326394
 20
-600.2768391913
 10
239.3409784957
 20
-593.1473059749
 10
239.4647326394
 20
-586.0177727586
 10
239.8357119485
 20
-578.9054159244
 10
240.4530074521
 20
-571.8273671513
 10
241.3151439353
 20
-564.8006817495
 10
242.420042686
 20
-557.8422865068
 10
243.7650363966
 20
-550.968943367
 10
245.3468915148
 20
-544.1972112453
 10
247.1617933436
 20
-537.5434031879
 10
249.205368392
 20
-531.0235491192
 10
251.4726918264
 20
-524.6533585882
 10
253.9583098217
 20
-518.4481797909
 10
256.6562246605
 20
-512.4229474163
 10
259.5599468871
 20
-506.5921975469
 10
262.6624729558
 20
-500.9699596262
 10
265.9563299342
 20
-495.5697862601
 10
269.4335904046
 20
-490.404693613
 10
273.0858650132
 20
-485.4871092534
 10
276.9043620749
 20
-480.8288870549
 10
280.8798875733
 20
-476.4412550425
 10
285.0028451605
 20
-472.334770689
 10
289.2633255644
 20
-468.5193358159
 10
293.6510618849
 20
-465.0041444397
 10
298.1554593964
 20
-461.7976678705
 10
302.7656998559
 20
-458.9076025581
 10
307.4706520959
 20
-456.3409520483
 10
312.2589763327
 20
-454.1038705205
 10
317.11916887
 20
-452.2017670965
 10
322.0395024939
 20
-450.6392015314
 10
327.0081158801
 20
-449.4199587202
 10
332.0130582972
 20
-448.5469592905
 10
337.0422449036
 20
-448.0223192071
 10
342.0835908576
 20
-447.8473050689
 10
347.1249368115
 20
-448.0223192071
 10
352.1541234179
 20
-448.5469592905
 10
357.1590658351
 20
-449.4199587202
 10
362.1276792212
 20
-450.6392015314
 10
367.0480128451
 20
-452.2017670965
 10
371.9081904812
 20
-454.1038705205
 10
376.6965296193
 20
-456.3409520483
 10
381.4014818593
 20
-458.9076025581
 10
386.0117223187
 20
-461.7976678705
 10
390.5161198302
 20
-465.0041444397
 10
394.9038561507
 20
-468.5193358159
 10
399.1643365546
 20
-472.334770689
 10
403.287309043
 20
-476.4412550425
 10
407.2628196402
 20
-480.8288870549
 10
411.0813018008
 20
-485.4871092534
 10
414.7335764094
 20
-490.404693613
 10
418.2108517809
 20
-495.5697862601
 10
421.5046938582
 20
-500.9699596262
 10
424.6072348281
 20
-506.5921975469
 10
427.5109645053
 20
-512.4229474163
 10
430.208879344
 20
-518.4481797909
 10
432.6944824381
 20
-524.6533585882
 10
434.9618133231
 20
-531.0235491192
 10
437.0053883715
 20
-537.5434031879
 10
438.8202902003
 20
-544.1972112453
 10
440.402137868
 20
-550.968943367
 10
441.7471464797
 20
-557.8422865068
 10
442.8520377799
 20
-564.8006817495
 10
443.7141593619
 20
-571.8273671513
 10
444.3314846678
 20
-578.9054159244
 10
444.7024341746
 20
-586.0177727586
 10
444.8262032195
 20
-593.1473059749
 10
444.7024341746
 20
-600.2768391913
 10
444.3314846678
 20
-607.3891960254
 10
443.7141593619
 20
-614.4672447985
 10
442.8520377799
 20
-621.4939302003
 10
441.7471464797
 20
-628.452325443
 10
440.402137868
 20
-635.3256685829
 10
438.8202902003
 20
-642.0974007046
 10
437.0053883715
 20
-648.7512087619
 10
434.9618133231
 20
-655.2710628306
 10
432.6944824381
 20
-661.6412533617
 10
430.208879344
 20
-667.8464321589
 10
427.5109645053
 20
-673.8716645336
 10
424.6072348281
 20
-679.7024144029
 10
421.5046938582
 20
-685.3246523237
 10
418.2108517809
 20
-690.7248256897
 10
414.7335764094
 20
-695.8899183368
 10
411.0813018008
 20
-700.8075026965
 10
407.2628196402
 20
-705.465724895
 10
403.287309043
 20
-709.8533569073
 10
399.1643365546
 20
-713.9598412609
 10
394.9038561507
 20
-717.775276134
 10
390.5161198302
 20
-721.2904675102
 10
386.0117223187
 20
-724.4969440794
 10
381.4014818593
 20
-727.3870093917
 10
376.6965296193
 20
-729.9536599016
 10
371.9081904812
 20
-732.1907414293
 10
367.0480128451
 20
-734.0928448534
 10
362.1276792212
 20
-735.6554104185
 10
357.1590658351
 20
-736.8746532297
 10
352.1541234179
 20
-737.7476526594
 10
347.1249368115
 20
-738.2722927427
 10
342.0835908576
 20
-738.4473068809
  0
ARC
  5
C3
330
1F
100
AcDbEntity
  8
0
  6
Continuous
 62
     7
370
    25
100
AcDbCircle
 10
136.0835906191
 20
-593.1473059749
 30
0.0
 40
177.5000000000001
100
AcDbArc
 50
90.0
 51
270.0
  0
ARC
  5
C4
330
1F
100
AcDbEntity
  8
0
  6
Continuous
 62
     7
370
    25
100
AcDbCircle
 10
136.0835906191
 20
-593.1473059749
 30
0.0
 40
145.3000000000001
100
AcDbArc
 50
326.1503865262
 51
33.8496134738
  0
LWPOLYLINE
  5
C5
330
1F
100
AcDbEntity
  8
0
  6
Continuous
 62
     1
370
    25
100
AcDbPolyline
 90
       72
 70
   128
 43
0.0
 10
188.0721364244
 20
-415.6473113393
 10
183.878174804
 20
-415.7464338636
 10
178.2943185492
 20
-416.1867482757
 10
172.7298785074
 20
-416.9784022665
 10
167.1958983018
 20
-418.1198312139
 10
161.703365676
 20
-419.6087701416
 10
156.2631845548
 20
-421.4422388172
 10
150.88615828
 20
-423.6166162586
 10
145.5829607396
 20
-426.127581129
 10
140.3641219324
 20
-428.9701415395
 10
135.2400030548
 20
-432.1386648511
 10
130.2207771762
 20
-435.6268627739
 10
125.3164101465
 20
-439.4277913665
 10
120.5366382449
 20
-443.5339255428
 10
115.8909525796
 20
-447.9370994663
 10
111.3885760381
 20
-452.6285810566
 10
107.0384465231
 20
-457.5990421867
 10
102.849202983
 20
-462.838618288
 10
98.8291602655
 20
-468.3369232511
 10
94.9863035305
 20
-474.0830196237
 10
91.3282584472
 20
-480.0655005669
 10
87.8622893317
 20
-486.2725047564
 10
84.5952767952
 20
-492.6916940307
 10
81.5337102934
 20
-499.3103353476
 10
78.6836657746
 20
-506.1152709817
 10
76.050801955
 20
-513.0930079317
 10
73.6403454168
 20
-520.2296881175
 10
71.4570831581
 20
-527.5111330843
 10
69.5053439661
 20
-534.922892431
 10
67.7890133186
 20
-542.4502549862
 10
66.311496131
 20
-550.0782674348
 10
65.0757204815
 20
-557.7917939221
 10
64.084137611
 20
-565.5755123293
 10
63.338729374
 20
-573.4139738774
 10
62.8409635349
 20
-581.2916133722
 10
62.5918384715
 20
-589.1927915795
 10
62.5918384715
 20
-597.1018203704
 10
62.8409635349
 20
-605.0029985776
 10
63.338729374
 20
-612.8806380724
 10
64.084137611
 20
-620.7190996205
 10
65.0757204815
 20
-628.5028180277
 10
66.311496131
 20
-636.216344515
 10
67.7890133186
 20
-643.8443569636
 10
69.5053439661
 20
-651.3717195189
 10
71.4570831581
 20
-658.7834788656
 10
73.6403454168
 20
-666.0649238324
 10
76.050801955
 20
-673.2016040182
 10
78.6836657746
 20
-680.1793409681
 10
81.5337102934
 20
-686.9842766022
 10
84.5952767952
 20
-693.6029179191
 10
87.8622893317
 20
-700.0221071934
 10
91.3282584472
 20
-706.2291113829
 10
94.9863035305
 20
-712.2115923261
 10
98.8291602655
 20
-717.9576886987
 10
102.849202983
 20
-723.4559936618
 10
107.0384465231
 20
-728.6955697631
 10
111.3885760381
 20
-733.6660308933
 10
115.8909525796
 20
-738.3575124836
 10
120.5366382449
 20
-742.760686407
 10
125.3164101465
 20
-746.8668205833
 10
130.2207771762
 20
-750.667749176
 10
135.2400030548
 20
-754.1559470987
 10
140.3641219324
 20
-757.3244704103
 10
145.5829607396
 20
-760.1670308208
 10
150.88615828
 20
-762.6779956913
 10
156.2631845548
 20
-764.8523731327
 10
161.703365676
 20
-766.6858418083
 10
167.1958983018
 20
-768.1747807359
 10
172.7298785074
 20
-769.3162096834
 10
178.2943185492
 20
-770.1078636741
 10
183.878174804
 20
-770.5481780862
 10
188.0721364244
 20
-770.6473006105
  0
LWPOLYLINE
  5
C6
330
1F
100
AcDbEntity
  8
0
  6
Continuous
 62
     1
370
    25
100
AcDbPolyline
 90
       31
 70
   128
 43
0.0
 10
265.0778617783
 20
-496.9582913613
 10
267.4932506009
 20
-500.9699596262
 10
270.5957766696
 20
-506.5921975469
 10
273.4995063468
 20
-512.4229474163
 10
276.1974211856
 20
-518.4481797909
 10
278.6830391808
 20
-524.6533585882
 10
280.9503551646
 20
-531.0235491192
 10
282.993930213
 20
-537.5434031879
 10
284.8088320418
 20
-544.1972112453
 10
286.3906946107
 20
-550.968943367
 10
287.7356883212
 20
-557.8422865068
 10
288.8405796214
 20
-564.8006817495
 10
289.7027161046
 20
-571.8273671513
 10
290.3200116082
 20
-578.9054159244
 10
290.6909909173
 20
-586.0177727586
 10
290.814745061
 20
-593.1473059749
 10
290.6909909173
 20
-600.2768391913
 10
290.3200116082
 20
-607.3891960254
 10
289.7027161046
 20
-614.4672447985
 10
288.8405796214
 20
-621.4939302003
 10
287.7356883212
 20
-628.452325443
 10
286.3906946107
 20
-635.3256685829
 10
284.8088320418
 20
-642.0974007046
 10
282.993930213
 20
-648.7512087619
 10
280.9503551646
 20
-655.2710628306
 10
278.6830391808
 20
-661.6412533617
 10
276.1974211856
 20
-667.8464321589
 10
273.4995063468
 20
-673.8716645336
 10
270.5957766696
 20
-679.7024144029
 10
267.4932506009
 20
-685.3246523237
 10
265.0778617783
 20
-689.3363205885
  0
INSERT
  5
D2
330
1F
100
AcDbEntity
  8
FORMAT
 62
     7
100
AcDbBlockReference
  2
SW_CENTERMARKSYMBOL_1
 10
136.0835906191
 20
-593.1473059749
 30
0.0
  0
LINE
  5
D3
330
1F
100
AcDbEntity
  8
0
  6
Continuous
 62
     7
370
    25
100
AcDbLine
 10
604.5983322673
 20
-678.3127784293
 30
0.0
 11
604.5983322673
 21
-850.1759195853
 31
0.0
  0
LINE
  5
D4
330
1F
100
AcDbEntity
  8
0
  6
Continuous
 62
     7
370
    25
100
AcDbLine
 10
959.5983291421
 20
-850.1759195853
 30
0.0
 11
959.5983291421
 21
-678.3127784293
 31
0.0
  0
LINE
  5
D5
330
1F
100
AcDbEntity
  8
0
  6
Continuous
 62
     7
370
    25
100
AcDbLine
 10
774.0428140855
 20
-277.2308876448
 30
0.0
 11
665.1402715925
 21
-465.8556283254
 31
0.0
  0
LINE
  5
D6
330
1F
100
AcDbEntity
  8
0
  6
Continuous
 62
     7
370
    25
100
AcDbLine
 10
972.579300334
 20
-643.3556333284
 30
0.0
 11
1081.4818309732
 21
-454.7308994909
 31
0.0
  0
SPLINE
  5
D7
330
1F
100
AcDbEntity
  8
0
  6
Continuous
 62
     7
370
    25
100
AcDbSpline
210
0.0
220
0.0
230
1.0
 70
     8
 71
     3
 72
    29
 73
    25
 74
     0
 42
0.000000001
 43
0.00000001
 40
0.0
 40
0.0
 40
0.0
 40
0.0
 40
0.0271998689341744
 40
0.0739514785295314
 40
0.1207344289697524
 40
0.1675649006854194
 40
0.2144602199447829
 40
0.2614371067249524
 40
0.3085113157584241
 40
0.3556974255039904
 40
0.4030083795408712
 40
0.4504547269195587
 40
0.4980442220545562
 40
0.545781113542039
 40
0.5936654841613844
 40
0.6416923674058456
 40
0.689850969224475
 40
0.738124352308864
 40
0.7864881655439108
 40
0.8349114557079228
 40
0.8833429487318567
 40
0.9317355697611666
 40
0.9800391018265702
 40
1.0
 40
1.0
 40
1.0
 40
1.0
 10
665.1402715924914
 20
-465.8556283253506
 30
0.0
 10
664.1113277836578
 20
-467.6537250421532
 30
0.0
 10
661.313817392295
 20
-472.5424217880255
 30
0.0
 10
656.9149006972301
 20
-480.6171339215516
 30
0.0
 10
652.0011763120457
 20
-490.1032251908181
 30
0.0
 10
647.3017110569243
 20
-499.6978304049821
 30
0.0
 10
642.8164044177838
 20
-509.3944546079674
 30
0.0
 10
638.5501280289445
 20
-519.1895013507171
 30
0.0
 10
634.5068798342847
 20
-529.0786263289313
 30
0.0
 10
630.691372071791
 20
-539.0575639172064
 30
0.0
 10
627.1086120069702
 20
-549.1217831255408
 30
0.0
 10
623.7640689225392
 20
-559.2664595216482
 30
0.0
 10
620.663571532676
 20
-569.4862600237229
 30
0.0
 10
617.8134211659147
 20
-579.7752989385286
 30
0.0
 10
615.2202786465007
 20
-590.126894868527
 30
0.0
 10
612.8910457525474
 20
-600.533386764542
 30
0.0
 10
610.8329916017881
 20
-610.9860643765547
 30
0.0
 10
609.0533826205096
 20
-621.4748409589093
 30
0.0
 10
607.5594477376919
 20
-631.9883412982206
 30
0.0
 10
606.3585794314262
 20
-642.5126333045627
 30
0.0
 10
605.4561410728109
 20
-653.0324196797534
 30
0.0
 10
604.862420110898
 20
-663.5303386243494
 30
0.0
 10
604.6226999777209
 20
-671.9547214771725
 30
0.0
 10
604.6038454390617
 20
-676.874273980703
 30
0.0
 10
604.5983322673416
 20
-678.3127784293338
 30
0.0
  0
SPLINE
  5
D8
330
1F
100
AcDbEntity
  8
0
  6
Continuous
 62
     7
370
    25
100
AcDbSpline
210
0.0
220
0.0
230
1.0
 70
     8
 71
     3
 72
    26
 73
    22
 74
     0
 42
0.000000001
 43
0.00000001
 40
0.0
 40
0.0
 40
0.0
 40
0.0
 40
0.017565697956475
 40
0.0783125108282026
 40
0.1374895033470108
 40
0.1953890015141756
 40
0.2522853525752369
 40
0.3084322225049032
 40
0.3640584405970505
 40
0.4193664826336411
 40
0.4745311757044423
 40
0.5296964738330687
 40
0.5849720792827359
 40
0.6404164018800911
 40
0.6960930798992286
 40
0.7520377210742278
 40
0.8082611136000799
 40
0.8647502067280193
 40
0.921474484258813
 40
0.9783879736314539
 40
0.9999999999999999
 40
0.9999999999999999
 40
0.9999999999999999
 40
0.9999999999999999
 10
959.5971174201601
 20
-678.4554371887186
 30
0.0
 10
959.5969143793072
 20
-678.4646714170043
 30
0.0
 10
959.5960091696749
 20
-678.5058400403291
 30
0.0
 10
959.6057481209335
 20
-678.2796240333911
 30
0.0
 10
959.6500279864671
 20
-677.7694361438731
 30
0.0
 10
959.7447216889923
 20
-676.9543885634788
 30
0.0
 10
959.904107864507
 20
-675.8734541358224
 30
0.0
 10
960.1420448685984
 20
-674.5316290887249
 30
0.0
 10
960.4707937637434
 20
-672.9438008975567
 30
0.0
 10
960.9014043848263
 20
-671.1236130140253
 30
0.0
 10
961.4433418584114
 20
-669.0866860288795
 30
0.0
 10
962.1045142691831
 20
-666.850279371165
 30
0.0
 10
962.8907895562756
 20
-664.4338812289944
 30
0.0
 10
963.8059711680003
 20
-661.8589530234101
 30
0.0
 10
964.851631204164
 20
-659.1487724391874
 30
0.0
 10
966.0270082258448
 20
-656.3277316066858
 30
0.0
 10
967.3293270593513
 20
-653.4221754759736
 30
0.0
 10
968.7511404647171
 20
-650.4584725706925
 30
0.0
 10
970.2901474638776
 20
-647.4687513435425
 30
0.0
 10
971.575121283259
 20
-645.0906773466058
 30
0.0
 10
972.3695982278477
 20
-643.7345923449909
 30
0.0
 10
972.5882565392716
 20
-643.3613665910909
 30
0.0
  0
LWPOLYLINE
  5
D9
330
1F
100
AcDbEntity
  8
0
  6
Continuous
 62
     7
370
    25
100
AcDbPolyline
 90
      142
 70
   128
 43
0.0
 10
656.5868808373
 20
-777.7197018508
 10
662.3026177956
 20
-774.5639333357
 10
668.2561933713
 20
-771.5582839319
 10
674.4357932759
 20
-768.708722303
 10
680.8291501424
 20
-766.0209068939
 10
687.4235645984
 20
-763.5001737661
 10
694.2059566329
 20
-761.1515312744
 10
701.1628339862
 20
-758.9796296541
 10
708.2804172728
 20
-756.9887982772
 10
715.5445477858
 20
-755.1829772218
 10
722.940824474
 20
-753.5657598517
 10
730.4545486239
 20
-752.1403517573
 10
738.0708002512
 20
-750.9095753181
 10
745.7744802474
 20
-749.8758940335
 10
753.5502629646
 20
-749.0413425713
 10
761.3827226564
 20
-748.4075875955
 10
769.2563229407
 20
-747.9758851865
 10
777.1554220683
 20
-747.7470899656
 10
785.0643256066
 20
-747.7216550952
 10
792.9673443911
 20
-747.8996353196
 10
800.8487787209
 20
-748.2806778415
 10
808.6929868467
 20
-748.8640253628
 10
816.4844007764
 20
-749.6485130437
 10
824.2075420799
 20
-750.6325897922
 10
831.847079841
 20
-751.8143030567
 10
839.3878411942
 20
-753.1913049096
 10
846.8148640084
 20
-754.7608581294
 10
854.1133968865
 20
-756.5198483663
 10
861.2689492153
 20
-758.4647887041
 10
868.2673148725
 20
-760.591809016
 10
875.0945959349
 20
-762.8966939807
 10
881.737247459
 20
-765.3748602729
 10
888.1820761643
 20
-768.021392299
 10
894.4162865307
 20
-770.8310323128
 10
900.4275012145
 20
-773.7982043659
 10
906.2037752059
 20
-776.9170224817
 10
911.7336527941
 20
-780.1812870436
 10
917.0061576883
 20
-783.5845155888
 10
922.0108147505
 20
-787.1199553538
 10
926.7376839098
 20
-790.7805906878
 10
931.1773789313
 20
-794.5591538877
 10
935.3211016603
 20
-798.448132801
 10
939.1606110711
 20
-802.4398137856
 10
942.6882864863
 20
-806.5262695438
 10
945.8971315294
 20
-810.6993857346
 10
948.7807662209
 20
-814.9508807423
 10
951.333463858
 20
-819.2723148006
 10
953.5501668187
 20
-823.6550991167
 10
955.4264654891
 20
-828.090544533
 10
956.9586351413
 20
-832.569834155
 10
958.1436359341
 20
-837.0840841782
 10
958.9791181804
 20
-841.6243225989
 10
959.4634223483
 20
-846.1815378755
 10
959.5955790602
 20
-850.7466910945
 10
959.3753301666
 20
-855.3107038045
 10
958.8031182094
 20
-859.8645188438
 10
957.8800706169
 20
-864.3991033814
 10
956.6080313136
 20
-868.9054489172
 10
954.9895133055
 20
-873.3746108197
 10
953.0277408263
 20
-877.7977083257
 10
950.7266071913
 20
-882.1659732024
 10
948.0906642601
 20
-886.4707193336
 10
945.1251751204
 20
-890.7034096296
 10
941.8359955499
 20
-894.8556271343
 10
938.2296820179
 20
-898.919146497
 10
934.3133836833
 20
-902.8858868317
 10
930.0948740057
 20
-906.7479786266
 10
925.5825323054
 20
-910.497750058
 10
920.7853121534
 20
-914.1277574042
 10
915.7127446645
 20
-917.6307953097
 10
910.3748979964
 20
-920.9999080005
 10
904.7823701057
 20
-924.2284056313
 10
898.9462633945
 20
-927.3098789218
 10
892.8781662703
 20
-930.2382098019
 10
886.5901277928
 20
-933.0075860478
 10
880.0946293561
 20
-935.6125054641
 10
873.4045652615
 20
-938.0477992643
 10
866.5332249374
 20
-940.3086301697
 10
859.4942402549
 20
-942.3905106577
 10
852.3016092362
 20
-944.2893136066
 10
844.9695801502
 20
-946.0012540472
 10
837.5127331723
 20
-947.5229515112
 10
829.9458565781
 20
-948.8513676825
 10
822.2839967923
 20
-949.9838748287
 10
814.5423424857
 20
-950.9182253866
 10
806.7362772577
 20
-951.6525580456
 10
798.8812953438
 20
-952.1854220785
 10
790.9930016144
 20
-952.51575301
 10
783.0870430872
 20
-952.6428999899
 10
775.1791089264
 20
-952.5666075441
 10
767.284925175
 20
-952.2870246991
 10
759.4201493871
 20
-951.8047110645
 10
751.6003917018
 20
-951.1206246681
 10
743.8411937695
 20
-950.236121955
 10
736.1579444581
 20
-949.1529577884
 10
728.565916732
 20
-947.8732824078
 10
721.0801622844
 20
-946.3996414293
 10
713.7155589529
 20
-944.7349545557
 10
706.4867264255
 20
-942.8825277424
 10
699.4080104357
 20
-940.8460440729
 10
692.4934669577
 20
-938.6295424697
 10
685.7568279613
 20
-936.2374222559
 10
679.2114553148
 20
-933.6744408746
 10
672.8703618576
 20
-930.9456773923
 10
666.746136985
 20
-928.0565503671
 10
660.8509334774
 20
-925.0127980797
 10
655.1964487317
 20
-921.8204676988
 10
649.7939119194
 20
-918.4858957019
 10
644.6540622552
 20
-915.0156953302
 10
639.7870956544
 20
-911.4167622911
 10
635.2026709893
 20
-907.6962418731
 10
630.9098959304
 20
-903.8615207725
 10
626.9172854583
 20
-899.9202153082
 10
623.2327789856
 20
-895.8801448097
 10
619.8636784536
 20
-891.7493323771
 10
616.8166878456
 20
-887.5359790303
 10
614.0978473317
 20
-883.2484500223
 10
611.7125517086
 20
-878.8952611533
 10
609.6655424967
 20
-874.4850498778
 10
607.9608868669
 20
-870.0265753046
 10
606.6019671038
 20
-865.5286877832
 10
605.5914700689
 20
-861.0003228211
 10
604.9314135428
 20
-856.450467629
 10
604.6231093459
 20
-851.8881519963
 10
604.6671686077
 20
-847.3224391676
 10
605.0634964976
 20
-842.7623863046
 10
605.8113080308
 20
-838.2170536106
 10
606.909122799
 20
-833.6954708752
 10
608.3547649713
 20
-829.2066070606
 10
610.1453474885
 20
-824.759367261
 10
612.2773458204
 20
-820.3625987844
 10
614.7464925986
 20
-816.0250181607
 10
617.5478987888
 20
-811.7552385134
 10
620.6760115435
 20
-807.5617452292
 10
624.1246063
 20
-803.4528518581
 10
627.8868579033
 20
-799.4367320476
 10
631.9552668482
 20
-795.5213404675
 10
636.3217778186
 20
-791.7144660337
 10
640.9777151489
 20
-788.0236596757
 10
645.9138355084
 20
-784.4562525851
 10
651.1203371209
 20
-781.0193265623
 10
656.5868808373
 20
-777.7197018508
  0
LWPOLYLINE
  5
DA
330
1F
100
AcDbEntity
  8
0
  6
Continuous
 62
     7
370
    25
100
AcDbPolyline
 90
      129
 70
   128
 43
0.0
 10
679.3557147577
 20
-790.8638698915
 10
674.4381271576
 20
-793.8456157483
 10
669.7799079706
 20
-796.963068865
 10
665.3922755023
 20
-800.2087189901
 10
661.2857934651
 20
-803.5747403314
 10
657.47036571
 20
-807.0530310934
 10
653.955168396
 20
-810.6352039732
 10
650.7486862107
 20
-814.3126382439
 10
647.8586293931
 20
-818.0764668283
 10
645.2919811492
 20
-821.9176340855
 10
643.054897553
 20
-825.8268684379
 10
641.1527892063
 20
-829.7947629677
 10
639.5902264079
 20
-833.8117632511
 10
638.3709865691
 20
-837.8681825654
 10
637.4979883592
 20
-841.9542520713
 10
636.9733496573
 20
-846.0601299367
 10
636.7983348688
 20
-850.1759195853
 10
636.9733496573
 20
-854.2917092339
 10
637.4979883592
 20
-858.3975870993
 10
638.3709865691
 20
-862.4836566051
 10
639.5902264079
 20
-866.5400759195
 10
641.1527892063
 20
-870.5570762029
 10
643.054897553
 20
-874.5249707326
 10
645.2919811492
 20
-878.4342050851
 10
647.8586293931
 20
-882.2753723422
 10
650.7486862107
 20
-886.0392009267
 10
653.955168396
 20
-889.7166351973
 10
657.47036571
 20
-893.2988080772
 10
661.2857934651
 20
-896.7770988392
 10
665.3922755023
 20
-900.1431201805
 10
669.7799079706
 20
-903.3887703056
 10
674.4381271576
 20
-906.5062234223
 10
679.3557147577
 20
-909.487969279
 10
684.5208097256
 20
-912.3268321736
 10
689.9209820338
 20
-915.0159648705
 10
695.5432221355
 20
-917.5488911796
 10
701.3739738921
 20
-919.9195127996
 10
707.3992030616
 20
-922.122112359
 10
713.6043808349
 20
-924.1513925739
 10
719.9745740568
 20
-926.0024553385
 10
726.4944228353
 20
-927.6708496265
 10
733.1482406401
 20
-929.152544119
 10
739.9199668878
 20
-930.4439849899
 10
746.7933065531
 20
-931.5420487656
 10
753.7517090954
 20
-932.4440970684
 10
760.7783948007
 20
-933.1479492455
 10
767.8564417092
 20
-933.6519203847
 10
774.9688014207
 20
-933.9547878606
 10
782.0983307047
 20
-934.0558217474
 10
789.2278599887
 20
-933.9547878606
 10
796.3402197002
 20
-933.6519203847
 10
803.4182666087
 20
-933.1479492455
 10
810.444952314
 20
-932.4440970684
 10
817.4033548563
 20
-931.5420487656
 10
824.2766945216
 20
-930.4439849899
 10
831.0484207693
 20
-929.152544119
 10
837.7022385741
 20
-927.6708496265
 10
844.2220873526
 20
-926.0024553385
 10
850.5922805745
 20
-924.1513925739
 10
856.7974583478
 20
-922.122112359
 10
862.8226875173
 20
-919.9195127996
 10
868.6534392739
 20
-917.5488911796
 10
874.2756793756
 20
-915.0159648705
 10
879.6758516838
 20
-912.3268321736
 10
884.8409466517
 20
-909.487969279
 10
889.7585342518
 20
-906.5062234223
 10
894.4167534388
 20
-903.3887703056
 10
898.8043859071
 20
-900.1431201805
 10
902.9108679443
 20
-896.7770988392
 10
906.7262956994
 20
-893.2988080772
 10
910.2414930134
 20
-889.7166351973
 10
913.4479751987
 20
-886.0392009267
 10
916.3380320163
 20
-882.2753723422
 10
918.9046802602
 20
-878.4342050851
 10
921.1417638564
 20
-874.5249707326
 10
923.0438722031
 20
-870.5570762029
 10
924.6064350015
 20
-866.5400759195
 10
925.8256748403
 20
-862.4836566051
 10
926.6986730502
 20
-858.3975870993
 10
927.2233117521
 20
-854.2917092339
 10
927.3983265406
 20
-850.1759195853
 10
927.2233117521
 20
-846.0601299367
 10
926.6986730502
 20
-841.9542520713
 10
925.8256748403
 20
-837.8681825654
 10
924.6064350015
 20
-833.8117632511
 10
923.0438722031
 20
-829.7947629677
 10
921.1417638564
 20
-825.8268684379
 10
918.9046802602
 20
-821.9176340855
 10
916.3380320163
 20
-818.0764668283
 10
913.4479751987
 20
-814.3126382439
 10
910.2414930134
 20
-810.6352039732
 10
906.7262956994
 20
-807.0530310934
 10
902.9108679443
 20
-803.5747403314
 10
898.8043859071
 20
-800.2087189901
 10
894.4167534388
 20
-796.963068865
 10
889.7585342518
 20
-793.8456157483
 10
884.8409466517
 20
-790.8638698915
 10
879.6758516838
 20
-788.0250069969
 10
874.2756793756
 20
-785.3358743001
 10
868.6534392739
 20
-782.802947991
 10
862.8226875173
 20
-780.432326371
 10
856.7974583478
 20
-778.2297268116
 10
850.5922805745
 20
-776.2004465967
 10
844.2220873526
 20
-774.3493838321
 10
837.7022385741
 20
-772.6809895441
 10
831.0484207693
 20
-771.1992950516
 10
824.2766945216
 20
-769.9078541806
 10
817.4033548563
 20
-768.809790405
 10
810.444952314
 20
-767.9077421021
 10
803.4182666087
 20
-767.2038899251
 10
796.3402197002
 20
-766.6999187859
 10
789.2278599887
 20
-766.39705131
 10
782.0983307047
 20
-766.2960174232
 10
774.9688014207
 20
-766.39705131
 10
767.8564417092
 20
-766.6999187859
 10
760.7783948007
 20
-767.2038899251
 10
753.7517090954
 20
-767.9077421021
 10
746.7933065531
 20
-768.809790405
 10
739.9199668878
 20
-769.9078541806
 10
733.1482406401
 20
-771.1992950516
 10
726.4944228353
 20
-772.6809895441
 10
719.9745740568
 20
-774.3493838321
 10
713.6043808349
 20
-776.2004465967
 10
707.3992030616
 20
-778.2297268116
 10
701.3739738921
 20
-780.432326371
 10
695.5432221355
 20
-782.802947991
 10
689.9209820338
 20
-785.3358743001
 10
684.5208097256
 20
-788.0250069969
 10
679.3557147577
 20
-790.8638698915
  0
LWPOLYLINE
  5
DB
330
1F
100
AcDbEntity
  8
0
  6
Continuous
 62
     7
370
    25
100
AcDbPolyline
 90
      142
 70
   128
 43
0.0
 10
802.2508779303
 20
-293.5246606246
 10
806.3290069922
 20
-295.8796685323
 10
810.6482265643
 20
-298.3738413884
 10
815.1999702997
 20
-301.0022446444
 10
819.9751976993
 20
-303.7596456986
 10
824.9644151854
 20
-306.6405990702
 10
830.1577498589
 20
-309.6393551466
 10
835.5448441318
 20
-312.7499696882
 10
841.115045388
 20
-315.9662794932
 10
846.8572690063
 20
-319.2818841542
 10
852.7601353378
 20
-322.6902129711
 10
858.8119064851
 20
-326.1844884554
 10
865.0005495229
 20
-329.7577628304
 10
871.3138207918
 20
-333.4029667004
 10
877.7391605308
 20
-337.1128482202
 10
884.2638087817
 20
-340.8800643394
 10
890.8748475352
 20
-344.6970834749
 10
897.5591059014
 20
-348.5563740952
 10
904.3033128912
 20
-352.4502495953
 10
911.0941079537
 20
-356.3710203838
 10
917.9180040973
 20
-360.3108265815
 10
924.761445842
 20
-364.2619148274
 10
931.6108355606
 20
-368.216410142
 10
938.4525808946
 20
-372.1664893124
 10
945.2731105587
 20
-376.1042683416
 10
952.0588848778
 20
-380.021930206
 10
958.7964063238
 20
-383.911730934
 10
965.4723143456
 20
-387.7659326918
 10
972.0733511252
 20
-391.5769056772
 10
978.5864274319
 20
-395.3370201395
 10
984.9985831099
 20
-399.0388669013
 10
991.2970950793
 20
-402.6750763785
 10
997.4694654823
 20
-406.2384577377
 10
1003.5034572449
 20
-409.7218734207
 10
1009.3870618081
 20
-413.1184638526
 10
1015.1085975801
 20
-416.4214852792
 10
1020.6567352903
 20
-419.624324404
 10
1026.0204143546
 20
-422.7206934348
 10
1031.1890331942
 20
-425.7043749621
 10
1036.1523040268
 20
-428.5695031224
 10
1040.9003770021
 20
-431.310367597
 10
1045.4238217628
 20
-433.9215246333
 10
1049.7136491765
 20
-436.3978095904
 10
1053.7613745555
 20
-438.7342517694
 10
1057.5589162418
 20
-440.9262835264
 10
1061.0987773647
 20
-442.9694802086
 10
1064.3739035954
 20
-444.8598673633
 10
1067.3778043192
 20
-446.5936013516
 10
1070.1045210253
 20
-448.1673161109
 10
1072.5486220388
 20
-449.5778524304
 10
1074.7052552037
 20
-450.8224100386
 10
1076.5701531516
 20
-451.8985263142
 10
1078.1396122281
 20
-452.8040641086
 10
1079.4105030297
 20
-453.5372178283
 10
1080.3803125506
 20
-454.0965377742
 10
1081.0471073042
 20
-454.480908836
 10
1081.4095702014
 20
-454.6895717897
 10
1081.4669952825
 20
-454.7221202522
 10
1081.2192350335
 20
-454.5784702557
 10
1080.6668057534
 20
-454.258945426
 10
1079.8108243336
 20
-453.7641187959
 10
1078.6529345011
 20
-453.0950135665
 10
1077.1954754062
 20
-452.2529570982
 10
1075.4413235712
 20
-451.239623498
 10
1073.3939771845
 20
-450.0569971032
 10
1071.0574928803
 20
-448.7074698323
 10
1068.436506812
 20
-447.1936708299
 10
1065.5362241152
 20
-445.5186428966
 10
1062.362397835
 20
-443.6857208114
 10
1058.9213499984
 20
-441.6984826618
 10
1055.2198873217
 20
-439.5609323489
 10
1051.2653749664
 20
-437.2772988305
 10
1047.0656522466
 20
-434.8521091173
 10
1042.6290747748
 20
-432.290188277
 10
1037.964430169
 20
-429.5966107567
 10
1033.0809907359
 20
-426.7767551432
 10
1027.9884502506
 20
-423.8361581461
 10
1022.6969239567
 20
-420.7807214459
 10
1017.2169064197
 20
-417.6164318415
 10
1011.5593031364
 20
-414.3497080204
 10
1005.7353040952
 20
-410.9869016968
 10
999.7565207528
 20
-407.5347173825
 10
993.6347753003
 20
-404.0001028821
 10
987.3822692503
 20
-400.389957275
 10
981.0113832395
 20
-396.7114898512
 10
974.5347718593
 20
-392.9720071848
 10
967.965300435
 20
-389.1789739686
 10
961.3160186848
 20
-385.3398578814
 10
954.6001133037
 20
-381.4622908037
 10
947.8309185011
 20
-377.5539958172
 10
941.0218843899
 20
-373.6227628661
 10
934.1865243035
 20
-369.6763270865
 10
927.338409527
 20
-365.7225178576
 10
920.4911376875
 20
-361.7692648833
 10
913.6582958753
 20
-357.8243761424
 10
906.8534659123
 20
-353.8956991037
 10
900.0901400583
 20
-349.9909625519
 10
893.3817631581
 20
-346.1180016877
 10
886.7416378107
 20
-342.2844843578
 10
880.182961248
 20
-338.4980175267
 10
873.7187463096
 20
-334.7660651437
 10
867.3618293449
 20
-331.0961230528
 10
861.1248293839
 20
-327.4954703224
 10
855.0201375999
 20
-323.9711996664
 10
849.0598639681
 20
-320.5303204862
 10
843.2558504356
 20
-317.1796752255
 10
837.6196152752
 20
-313.925949825
 10
832.1623507802
 20
-310.7755507214
 10
826.8948909954
 20
-307.7347930633
 10
821.827695254
 20
-304.8096417762
 10
816.9708175551
 20
-302.005943315
 10
812.3339134781
 20
-299.3292593167
 10
807.9261776216
 20
-296.7849156496
 10
803.7563659933
 20
-294.3779727603
 10
799.8327551806
 20
-292.1131655991
 10
796.1631397162
 20
-289.9950481081
 10
792.7548031025
 20
-288.0277635669
 10
789.6145046402
 20
-286.2152438335
 10
786.7484925997
 20
-284.5610709465
 10
784.1624462687
 20
-283.0685957539
 10
781.8615075629
 20
-281.7407371597
 10
779.8502388786
 20
-280.5800916287
 10
778.1326388979
 20
-279.5890518233
 10
776.712110979
 20
-278.7695024199
 10
775.591484229
 20
-278.123093879
 10
774.7729766258
 20
-277.6511238159
 10
774.2582055548
 20
-277.3545491667
 10
774.0482194188
 20
-277.2338827738
 10
774.1434186129
 20
-277.2894519412
 10
774.5435924028
 20
-277.5211216311
 10
775.247992682
 20
-277.928397886
 10
776.2551864576
 20
-278.5104765062
 10
777.5631717542
 20
-279.2662734634
 10
779.1693776143
 20
-280.1941815607
 10
781.0705903405
 20
-281.2924537064
 10
783.2630588633
 20
-282.558825723
 10
785.7424104472
 20
-283.990832711
 10
788.5037244477
 20
-285.5856447766
 10
791.5415323111
 20
-287.3400548818
 10
794.8497965014
 20
-289.250637011
 10
798.4219421102
 20
-291.3135332482
 10
802.2508779303
 20
-293.5246606246
  0
LWPOLYLINE
  5
DC
330
1F
100
AcDbEntity
  8
0
  6
Continuous
 62
     7
370
    25
100
AcDbPolyline
 90
      129
 70
   128
 43
0.0
 10
825.0197118507
 20
-306.6688286653
 10
821.5786956243
 20
-304.6817154612
 10
818.3935002316
 20
-302.8422860945
 10
815.4717753257
 20
-301.154946052
 10
812.820569967
 20
-299.6237541061
 10
810.446269403
 20
-298.2524709719
 10
808.3545845317
 20
-297.0442977155
 10
806.5505835116
 20
-296.0022225157
 10
805.038575858
 20
-295.1287347292
 10
803.8222283466
 20
-294.4259404781
 10
802.9044596469
 20
-293.8955383188
 10
802.2874771999
 20
-293.5387796806
 10
801.9727824871
 20
-293.3565449239
 10
801.9611341519
 20
-293.3492611989
 10
802.2525374625
 20
-293.5169693643
 10
802.846312801
 20
-293.8592296888
 10
803.7410219063
 20
-294.3752496041
 10
804.9344994839
 20
-295.0638046138
 10
806.4238900849
 20
-295.9231622439
 10
808.2055954222
 20
-296.9512949688
 10
810.2753165171
 20
-298.1457524513
 10
812.6280853099
 20
-299.5035946165
 10
815.258211976
 20
-301.0216410826
 10
818.1593771223
 20
-302.6961167799
 10
821.3245843721
 20
-304.5231051836
 10
824.7462077798
 20
-306.4981254947
 10
828.4160050024
 20
-308.6164505086
 10
832.3251383727
 20
-310.8729301852
 10
836.4641854358
 20
-313.262210658
 10
840.8231797791
 20
-315.7785022913
 10
845.3916222275
 20
-318.4157017302
 10
850.15849599
 20
-321.1675101494
 10
855.1123298798
 20
-324.0272933269
 10
860.241178558
 20
-326.9881189007
 10
865.5326962907
 20
-330.0428962951
 10
870.9741264124
 20
-333.1842732905
 10
876.5523658628
 20
-336.4046246184
 10
882.2539757243
 20
-339.696234467
 10
888.0652174413
 20
-343.0512078852
 10
893.9720956259
 20
-346.4613799065
 10
899.9603778143
 20
-349.9185824679
 10
906.0156366133
 20
-353.4144558138
 10
912.1232813108
 20
-356.9406553399
 10
918.2686026567
 20
-360.4885671792
 10
924.4367992046
 20
-364.0497736003
 10
930.6130036537
 20
-367.6155876091
 10
936.7823434349
 20
-371.1774955293
 10
942.9299512474
 20
-374.7268832406
 10
949.0410177421
 20
-378.2551517662
 10
955.1008231324
 20
-381.7538876127
 10
961.0947688035
 20
-385.2146376778
 10
967.0084141915
 20
-388.629027879
 10
972.8275083932
 20
-391.9888787412
 10
978.5380428499
 20
-395.2860654785
 10
984.1262566154
 20
-398.5126548708
 10
989.5786679667
 20
-401.6608505115
 10
994.882185039
 20
-404.7231175274
 10
1000.0239846535
 20
-407.6920396103
 10
1004.9916967102
 20
-410.5604863161
 10
1009.7733620409
 20
-413.3215522375
 10
1014.3574640192
 20
-415.9685265743
 10
1018.7329390973
 20
-418.4951182416
 10
1022.8892716366
 20
-420.8951821
 10
1026.8164201505
 20
-423.1629318866
 10
1030.5049437448
 20
-425.2929280528
 10
1033.9459599712
 20
-427.2800655917
 10
1037.1311553638
 20
-429.1194949585
 10
1040.0528802697
 20
-430.8068350009
 10
1042.7040856284
 20
-432.338002612
 10
1045.0783861924
 20
-433.709310081
 10
1047.1700605271
 20
-434.9174650854
 10
1048.9740720839
 20
-435.9595342025
 10
1050.4860797375
 20
-436.833021989
 10
1051.7024272488
 20
-437.5358162401
 10
1052.6201959485
 20
-438.0662183994
 10
1053.2371783955
 20
-438.4229770375
 10
1053.5518731083
 20
-438.6052117943
 10
1053.5635319803
 20
-438.6124894365
 10
1053.2721181329
 20
-438.4447873538
 10
1052.6783322577
 20
-438.1025331121
 10
1051.7836231524
 20
-437.5865131968
 10
1050.5901561115
 20
-436.8979764391
 10
1049.1007549738
 20
-436.0386248918
 10
1047.3190601732
 20
-435.0104617493
 10
1045.2493443467
 20
-433.8160255603
 10
1042.8965755539
 20
-432.4581590603
 10
1040.2664383511
 20
-430.9401673465
 10
1037.3652784731
 20
-429.2656399383
 10
1034.2000712234
 20
-427.4386758693
 10
1030.7784478156
 20
-425.4636555582
 10
1027.1086453246
 20
-423.3453579205
 10
1023.1995224911
 20
-421.0888234916
 10
1019.0604701596
 20
-418.6995460601
 10
1014.7014652796
 20
-416.1832848443
 10
1010.1330439046
 20
-413.5460489052
 10
1005.3661490687
 20
-410.7942526515
 10
1000.4123257156
 20
-407.9344633913
 10
995.2834665007
 20
-404.9736439001
 10
989.9919698414
 20
-401.9188543403
 10
984.5505186463
 20
-398.7775138452
 10
978.9722897326
 20
-395.5571320997
 10
973.2706851395
 20
-392.2655192098
 10
967.4594328858
 20
-388.910600544
 10
961.5525599695
 20
-385.5004011465
 10
955.5642777811
 20
-382.043198585
 10
949.5090189822
 20
-378.5473009043
 10
943.4013690163
 20
-375.0211530892
 10
937.2560582071
 20
-371.4731864976
 10
931.0878616592
 20
-367.9120044113
 10
924.9116519417
 20
-364.346169109
 10
918.7423016238
 20
-360.7842916064
 10
912.5947043481
 20
-357.2348978124
 10
906.4836273166
 20
-353.7066110346
 10
900.4238219263
 20
-350.2078751881
 10
894.4298867919
 20
-346.7471190404
 10
888.5162519407
 20
-343.3327227565
 10
882.6971472022
 20
-339.9728779769
 10
876.9866127456
 20
-336.6756912396
 10
871.39839898
 20
-333.4491018474
 10
865.9459876287
 20
-330.3009062066
 10
860.6424705565
 20
-327.2386391908
 10
855.500670942
 20
-324.2697171079
 10
850.5329483485
 20
-321.4012764847
 10
845.7512935546
 20
-318.6402288154
 10
841.1671915763
 20
-315.9932301439
 10
836.7917164981
 20
-313.4666628114
 10
832.6353839588
 20
-311.0665989529
 10
828.708235445
 20
-308.7988491664
 10
825.0197118507
 20
-306.6688286653
  0
LWPOLYLINE
  5
DD
330
1F
100
AcDbEntity
  8
0
  6
Continuous
 62
     1
370
    25
100
AcDbPolyline
 90
       19
 70
   128
 43
0.0
 10
907.6097805721
 20
-605.8565606948
 10
913.0763242885
 20
-609.1561854064
 10
918.2828259009
 20
-612.5931114292
 10
923.2189462605
 20
-616.1605185197
 10
927.8748835908
 20
-619.8513248777
 10
932.2413945612
 20
-623.6581993116
 10
936.3098035061
 20
-627.5735908917
 10
940.0720551093
 20
-631.5897107022
 10
943.5206498659
 20
-635.6986040733
 10
946.6487626206
 20
-639.8920973574
 10
949.4501688108
 20
-644.1618770047
 10
951.919315589
 20
-648.4994576285
 10
954.0513139209
 20
-652.8962261051
 10
955.8418964381
 20
-657.3434659047
 10
957.2875386104
 20
-661.8323297192
 10
958.3853533786
 20
-666.3539124547
 10
959.1331649118
 20
-670.8992451487
 10
959.5294928017
 20
-675.4592980116
 10
959.5983291421
 20
-678.3127784293
  0
LWPOLYLINE
  5
DE
330
1F
100
AcDbEntity
  8
0
  6
Continuous
 62
     1
370
    25
100
AcDbPolyline
 90
       54
 70
   128
 43
0.0
 10
604.5983322673
 20
-678.3127784293
 10
604.7332390611
 20
-674.3183967196
 10
605.217543229
 20
-669.7611814429
 10
606.0530254753
 20
-665.2209430223
 10
607.2380262681
 20
-660.706692999
 10
608.7701959203
 20
-656.227403377
 10
610.6464945907
 20
-651.7919579607
 10
612.8631975514
 20
-647.4091736446
 10
615.4158951885
 20
-643.0877395863
 10
618.29952988
 20
-638.8362445787
 10
621.508374923
 20
-634.6631283879
 10
625.0360503383
 20
-630.5766726296
 10
628.8755597491
 20
-626.5849916451
 10
633.0192824781
 20
-622.6960127317
 10
637.4589774996
 20
-618.9174495319
 10
642.1858466589
 20
-615.2568141978
 10
647.1905037211
 20
-611.7213744329
 10
652.4630086153
 20
-608.3181458877
 10
657.9928862035
 20
-605.0538813258
 10
663.7691601949
 20
-601.93506321
 10
669.7803748786
 20
-598.9678911568
 10
676.0145852451
 20
-596.1582511431
 10
682.4594139504
 20
-593.5117191169
 10
689.1020654745
 20
-591.0335528247
 10
695.9293465369
 20
-588.72866786
 10
702.9277121941
 20
-586.6016475482
 10
710.0832645229
 20
-584.6567072103
 10
717.381797401
 20
-582.8977169735
 10
724.8088202152
 20
-581.3281637537
 10
732.3495815684
 20
-579.9511619008
 10
739.9891193295
 20
-578.7694486362
 10
747.712260633
 20
-577.7853718878
 10
755.5036745627
 20
-577.0008842068
 10
763.3478826885
 20
-576.4175366855
 10
771.2293170182
 20
-576.0364941637
 10
779.1323358028
 20
-575.8585139392
 10
787.0412393411
 20
-575.8839488097
 10
794.9403384687
 20
-576.1127440305
 10
802.813938753
 20
-576.5444464395
 10
810.6463984448
 20
-577.1782014154
 10
818.422181162
 20
-578.0127528775
 10
826.1258611582
 20
-579.0464341622
 10
833.7421127855
 20
-580.2772106014
 10
841.2558369354
 20
-581.7026186958
 10
848.6521136236
 20
-583.3198360659
 10
855.9162441366
 20
-585.1256571212
 10
863.0338274232
 20
-587.1164884981
 10
869.9907047765
 20
-589.2883901185
 10
876.773096811
 20
-591.6370326101
 10
883.367511267
 20
-594.157765738
 10
889.7608681335
 20
-596.845581147
 10
895.9404680381
 20
-599.695142776
 10
901.8940436138
 20
-602.7007921798
 10
907.6097805721
 20
-605.8565606948
  0
LWPOLYLINE
  5
DF
330
1F
100
AcDbEntity
  8
0
  6
Continuous
 62
     1
370
    25
100
AcDbPolyline
 90
       23
 70
   128
 43
0.0
 10
907.6097805721
 20
-605.8565606948
 10
913.1128234594
 20
-609.0333831998
 10
918.4287277538
 20
-612.1021398585
 10
923.5469541091
 20
-615.0567465367
 10
928.4573319638
 20
-617.8913320564
 10
933.1501016885
 20
-620.6002625307
 10
937.6159764883
 20
-623.1781771058
 10
941.84605811
 20
-625.6199392813
 10
945.8319725016
 20
-627.9207152451
 10
949.5657881529
 20
-630.0759267144
 10
953.0401003897
 20
-632.0812996073
 10
956.2480076653
 20
-633.932850351
 10
959.1831458057
 20
-635.6269178178
 10
961.8396880092
 20
-637.1601024881
 10
964.2123606511
 20
-638.5293972447
 10
966.296432748
 20
-639.7320596118
 10
968.0878002502
 20
-640.7657212639
 10
969.5828859441
 20
-641.6283180549
 10
970.7787184769
 20
-642.3181356479
 10
971.6729376251
 20
-642.833812553
 10
972.2637521475
 20
-643.1743036211
 10
972.5499924692
 20
-643.3389712982
 10
972.579300334
 20
-643.3556333284
  0
LWPOLYLINE
  5
E0
330
1F
100
AcDbEntity
  8
0
  6
Continuous
 62
     1
370
    25
100
AcDbPolyline
 90
       51
 70
   128
 43
0.0
 10
665.1402715925
 20
-465.8556283254
 10
665.1408576971
 20
-465.8560092991
 10
665.3123393943
 20
-465.9556116934
 10
665.788673198
 20
-466.2312146933
 10
666.5689219994
 20
-466.6823117996
 10
667.6515222492
 20
-467.3079430185
 10
669.0343371352
 20
-468.1069075026
 10
670.7146197034
 20
-469.0776023398
 10
672.689026359
 20
-470.2181120986
 10
674.9536410668
 20
-471.5261583529
 10
677.5039718949
 20
-472.9991503513
 10
680.334940148
 20
-474.6341669593
 10
683.4409429294
 20
-476.4279448699
 10
686.8158123112
 20
-478.376963021
 10
690.4528456275
 20
-480.4773155992
 10
694.3448120595
 20
-482.7248542466
 10
698.4839855632
 20
-485.1150838789
 10
702.8621659422
 20
-487.6432965285
 10
707.470644604
 20
-490.3044572782
 10
712.3002783166
 20
-493.0932711823
 10
717.3414734037
 20
-496.0042167261
 10
722.5842199887
 20
-499.0314895567
 10
728.0181130685
 20
-502.1691241526
 10
733.6323630497
 20
-505.410878241
 10
739.4158326277
 20
-508.7502845044
 10
745.3570262496
 20
-512.1807296717
 10
751.4441533344
 20
-515.6954180181
 10
757.665123005
 20
-519.2873500678
 10
764.0075967715
 20
-522.9494016886
 10
770.4589727262
 20
-526.6743088777
 10
777.0064434956
 20
-530.4546586414
 10
783.6370067767
 20
-534.2829802437
 10
790.3375022163
 20
-538.1516387468
 10
797.0946324835
 20
-542.0529688529
 10
803.8949738072
 20
-545.9792201457
 10
810.7250181223
 20
-549.9225935966
 10
817.5712204855
 20
-553.8752689409
 10
824.4199727331
 20
-557.829389461
 10
831.257693043
 20
-561.777125875
 10
838.0708048618
 20
-565.7106033239
 10
844.8457685143
 20
-569.6220412984
 10
851.5691391559
 20
-573.5036654228
 10
858.2275667723
 20
-577.347768293
 10
864.8078304239
 20
-581.1467170773
 10
871.2968777587
 20
-584.8929763325
 10
877.6818039383
 20
-588.5790958292
 10
883.94995964
 20
-592.1977729166
 10
890.088875982
 20
-595.741809164
 10
896.086369891
 20
-599.2041712053
 10
901.9305427846
 20
-602.5779899732
 10
907.6097805721
 20
-605.8565606948
  0
ENDSEC
  0
SECTION
  2
OBJECTS
  0
DICTIONARY
  5
C
330
0
100
AcDbDictionary
281
     1
  3
ACAD_GROUP
350
D
  3
ACAD_LAYOUT
350
1A
  3
ACAD_MLINESTYLE
350
17
  3
ACAD_PLOTSETTINGS
350
19
  3
ACAD_PLOTSTYLENAME
350
E
  3
ACAD_SCALELIST
350
47
  0
DICTIONARY
  5
D
102
{ACAD_REACTORS
330
C
102
}
330
C
100
AcDbDictionary
281
     1
  0
DICTIONARY
  5
1A
102
{ACAD_REACTORS
330
C
102
}
330
C
100
AcDbDictionary
281
     1
  3
Layout1
350
1E
  3
Layout2
350
26
  3
Model
350
22
  0
DICTIONARY
  5
17
102
{ACAD_REACTORS
330
C
102
}
330
C
100
AcDbDictionary
281
     1
  3
Standard
350
18
  0
DICTIONARY
  5
19
102
{ACAD_REACTORS
330
C
102
}
330
C
100
AcDbDictionary
281
     1
  0
ACDBDICTIONARYWDFLT
  5
E
102
{ACAD_REACTORS
330
C
102
}
330
C
100
AcDbDictionary
281
     1
  3
Normal
350
F
100
AcDbDictionaryWithDefault
340
F
  0
DICTIONARY
  5
47
102
{ACAD_REACTORS
330
C
102
}
330
C
100
AcDbDictionary
281
     1
  3
A0
350
48
  3
A1
350
49
  3
A2
350
4A
  3
A3
350
4B
  3
A4
350
4C
  3
A5
350
4D
  3
A6
350
4E
  3
A7
350
4F
  3
A8
350
50
  3
A9
350
51
  3
B0
350
52
  3
B1
350
53
  3
B2
350
54
  3
B3
350
55
  3
B4
350
56
  3
B5
350
57
  3
B6
350
58
  3
B7
350
59
  3
B8
350
5A
  3
B9
350
5B
  3
C0
350
5C
  3
C1
350
5D
  3
C2
350
5E
  3
C3
350
5F
  3
C4
350
60
  3
C5
350
61
  3
C6
350
62
  3
C7
350
63
  3
C8
350
64
  3
C9
350
65
  3
D0
350
66
  3
D1
350
67
  3
D2
350
68
  0
LAYOUT
  5
1E
102
{ACAD_REACTORS
330
1A
102
}
330
1A
100
AcDbPlotSettings
  1

  2
none_device
  4

  6

 40
0.0
 41
0.0
 42
0.0
 43
0.0
 44
0.0
 45
0.0
 46
0.0
 47
0.0
 48
0.0
 49
0.0
140
0.0
141
0.0
142
1.0
143
1.0
 70
   688
 72
     1
 73
     0
 74
     5
  7

 75
    16
147
1.0
148
0.0
149
0.0
100
AcDbLayout
  1
Layout1
 70
     1
 71
     1
 10
0.0
 20
0.0
 11
420.0
 21
297.0
 12
0.0
 22
0.0
 32
0.0
 14
1.0000000000E+20
 24
1.0000000000E+20
 34
1.0000000000E+20
 15
-1.0000000000E+20
 25
-1.0000000000E+20
 35
-1.0000000000E+20
146
0.0
 13
0.0
 23
0.0
 33
0.0
 16
1.0
 26
0.0
 36
0.0
 17
0.0
 27
1.0
 37
0.0
 76
     0
330
1B
  0
LAYOUT
  5
26
102
{ACAD_REACTORS
330
1A
102
}
330
1A
100
AcDbPlotSettings
  1

  2
none_device
  4

  6

 40
0.0
 41
0.0
 42
0.0
 43
0.0
 44
0.0
 45
0.0
 46
0.0
 47
0.0
 48
0.0
 49
0.0
140
0.0
141
0.0
142
1.0
143
1.0
 70
   688
 72
     1
 73
     0
 74
     5
  7

 75
    16
147
1.0
148
0.0
149
0.0
100
AcDbLayout
  1
Layout2
 70
     1
 71
     2
 10
0.0
 20
0.0
 11
0.0
 21
0.0
 12
0.0
 22
0.0
 32
0.0
 14
0.0
 24
0.0
 34
0.0
 15
0.0
 25
0.0
 35
0.0
146
0.0
 13
0.0
 23
0.0
 33
0.0
 16
1.0
 26
0.0
 36
0.0
 17
0.0
 27
1.0
 37
0.0
 76
     0
330
23
  0
LAYOUT
  5
22
102
{ACAD_REACTORS
330
1A
102
}
330
1A
100
AcDbPlotSettings
  1

  2
none_device
  4
Letter_(8.50_x_11.00_Inches)
  6

 40
6.35
 41
6.35
 42
6.35000508
 43
6.35000508
 44
215.9
 45
279.4
 46
0.0
 47
0.0
 48
0.0
 49
0.0
140
0.0
141
0.0
142
1.0
143
1.0
 70
  1712
 72
     1
 73
     0
 74
     0
  7

 75
     0
147
1.0
148
0.0
149
0.0
100
AcDbLayout
  1
Model
 70
     1
 71
     0
 10
0.0
 20
0.0
 11
279.4
 21
215.9
 12
0.0
 22
0.0
 32
0.0
 14
0.0
 24
0.0
 34
0.0
 15
279.4
 25
215.9
 35
0.0
146
0.0
 13
0.0
 23
0.0
 33
0.0
 16
1.0
 26
0.0
 36
0.0
 17
0.0
 27
1.0
 37
0.0
 76
     0
330
1F
331
29
  0
MLINESTYLE
  5
18
102
{ACAD_REACTORS
330
17
102
}
330
17
100
AcDbMlineStyle
  2
Standard
 70
     0
  3

 62
   256
 51
90.0
 52
90.0
 71
     2
 49
0.5
 62
   256
  6
BYLAYER
 49
-0.5
 62
   256
  6
BYLAYER
  0
ACDBPLACEHOLDER
  5
F
102
{ACAD_REACTORS
330
E
102
}
330
E
  0
SCALE
  5
48
102
{ACAD_REACTORS
330
47
102
}
330
47
100
AcDbScale
 70
     0
300
1:1
140
1.0
141
1.0
290
     1
  0
SCALE
  5
49
102
{ACAD_REACTORS
330
47
102
}
330
47
100
AcDbScale
 70
     0
300
1:2
140
1.0
141
2.0
290
     0
  0
SCALE
  5
4A
102
{ACAD_REACTORS
330
47
102
}
330
47
100
AcDbScale
 70
     0
300
1:4
140
1.0
141
4.0
290
     0
  0
SCALE
  5
4B
102
{ACAD_REACTORS
330
47
102
}
330
47
100
AcDbScale
 70
     0
300
1:5
140
1.0
141
5.0
290
     0
  0
SCALE
  5
4C
102
{ACAD_REACTORS
330
47
102
}
330
47
100
AcDbScale
 70
     0
300
1:8
140
1.0
141
8.0
290
     0
  0
SCALE
  5
4D
102
{ACAD_REACTORS
330
47
102
}
330
47
100
AcDbScale
 70
     0
300
1:10
140
1.0
141
10.0
290
     0
  0
SCALE
  5
4E
102
{ACAD_REACTORS
330
47
102
}
330
47
100
AcDbScale
 70
     0
300
1:16
140
1.0
141
16.0
290
     0
  0
SCALE
  5
4F
102
{ACAD_REACTORS
330
47
102
}
330
47
100
AcDbScale
 70
     0
300
1:20
140
1.0
141
20.0
290
     0
  0
SCALE
  5
50
102
{ACAD_REACTORS
330
47
102
}
330
47
100
AcDbScale
 70
     0
300
1:30
140
1.0
141
30.0
290
     0
  0
SCALE
  5
51
102
{ACAD_REACTORS
330
47
102
}
330
47
100
AcDbScale
 70
     0
300
1:40
140
1.0
141
40.0
290
     0
  0
SCALE
  5
52
102
{ACAD_REACTORS
330
47
102
}
330
47
100
AcDbScale
 70
     0
300
1:50
140
1.0
141
50.0
290
     0
  0
SCALE
  5
53
102
{ACAD_REACTORS
330
47
102
}
330
47
100
AcDbScale
 70
     0
300
1:100
140
1.0
141
100.0
290
     0
  0
SCALE
  5
54
102
{ACAD_REACTORS
330
47
102
}
330
47
100
AcDbScale
 70
     0
300
2:1
140
2.0
141
1.0
290
     0
  0
SCALE
  5
55
102
{ACAD_REACTORS
330
47
102
}
330
47
100
AcDbScale
 70
     0
300
4:1
140
4.0
141
1.0
290
     0
  0
SCALE
  5
56
102
{ACAD_REACTORS
330
47
102
}
330
47
100
AcDbScale
 70
     0
300
8:1
140
8.0
141
1.0
290
     0
  0
SCALE
  5
57
102
{ACAD_REACTORS
330
47
102
}
330
47
100
AcDbScale
 70
     0
300
10:1
140
10.0
141
1.0
290
     0
  0
SCALE
  5
58
102
{ACAD_REACTORS
330
47
102
}
330
47
100
AcDbScale
 70
     0
300
100:1
140
100.0
141
1.0
290
     0
  0
SCALE
  5
59
102
{ACAD_REACTORS
330
47
102
}
330
47
100
AcDbScale
 70
     0
300
1/128" = 1'-0"
140
0.0078125
141
12.0
290
     0
  0
SCALE
  5
5A
102
{ACAD_REACTORS
330
47
102
}
330
47
100
AcDbScale
 70
     0
300
1/64" = 1'-0"
140
0.015625
141
12.0
290
     0
  0
SCALE
  5
5B
102
{ACAD_REACTORS
330
47
102
}
330
47
100
AcDbScale
 70
     0
300
1/32" = 1'-0"
140
0.03125
141
12.0
290
     0
  0
SCALE
  5
5C
102
{ACAD_REACTORS
330
47
102
}
330
47
100
AcDbScale
 70
     0
300
1/16" = 1'-0"
140
0.0625
141
12.0
290
     0
  0
SCALE
  5
5D
102
{ACAD_REACTORS
330
47
102
}
330
47
100
AcDbScale
 70
     0
300
3/32" = 1'-0"
140
0.09375
141
12.0
290
     0
  0
SCALE
  5
5E
102
{ACAD_REACTORS
330
47
102
}
330
47
100
AcDbScale
 70
     0
300
1/8" = 1'-0"
140
0.125
141
12.0
290
     0
  0
SCALE
  5
5F
102
{ACAD_REACTORS
330
47
102
}
330
47
100
AcDbScale
 70
     0
300
3/16" = 1'-0"
140
0.1875
141
12.0
290
     0
  0
SCALE
  5
60
102
{ACAD_REACTORS
330
47
102
}
330
47
100
AcDbScale
 70
     0
300
1/4" = 1'-0"
140
0.25
141
12.0
290
     0
  0
SCALE
  5
61
102
{ACAD_REACTORS
330
47
102
}
330
47
100
AcDbScale
 70
     0
300
3/8" = 1'-0"
140
0.375
141
12.0
290
     0
  0
SCALE
  5
62
102
{ACAD_REACTORS
330
47
102
}
330
47
100
AcDbScale
 70
     0
300
1/2" = 1'-0"
140
0.5
141
12.0
290
     0
  0
SCALE
  5
63
102
{ACAD_REACTORS
330
47
102
}
330
47
100
AcDbScale
 70
     0
300
3/4" = 1'-0"
140
0.75
141
12.0
290
     0
  0
SCALE
  5
64
102
{ACAD_REACTORS
330
47
102
}
330
47
100
AcDbScale
 70
     0
300
1" = 1'-0"
140
1.0
141
12.0
290
     0
  0
SCALE
  5
65
102
{ACAD_REACTORS
330
47
102
}
330
47
100
AcDbScale
 70
     0
300
1-1/2" = 1'-0"
140
1.5
141
12.0
290
     0
  0
SCALE
  5
66
102
{ACAD_REACTORS
330
47
102
}
330
47
100
AcDbScale
 70
     0
300
3" = 1'-0"
140
3.0
141
12.0
290
     0
  0
SCALE
  5
67
102
{ACAD_REACTORS
330
47
102
}
330
47
100
AcDbScale
 70
     0
300
6" = 1'-0"
140
6.0
141
12.0
290
     0
  0
SCALE
  5
68
102
{ACAD_REACTORS
330
47
102
}
330
47
100
AcDbScale
 70
     0
300
1'-0" = 1'-0"
140
12.0
141
12.0
290
     0
  0
ENDSEC
  0
EOF
